  0
SECTION
  2
HEADER
  9
$ACADVER
  1
AC1015
  9
$ACADMAINTVER
 70
    20
  9
$DWGCODEPAGE
  3
ANSI_1252
  9
$INSBASE
 10
0.0
 20
0.0
 30
0.0
  9
$EXTMIN
 10
-2320.406544856313
 20
-3074.064805267931
 30
0.0
  9
$EXTMAX
 10
-2318.090480267846
 20
-3073.558391198457
 30
0.0
  9
$LIMMIN
 10
0.0
 20
0.0
  9
$LIMMAX
 10
420.0
 20
297.0
  9
$ORTHOMODE
 70
     1
  9
$REGENMODE
 70
     1
  9
$FILLMODE
 70
     1
  9
$QTEXTMODE
 70
     0
  9
$MIRRTEXT
 70
     1
  9
$LTSCALE
 40
0.6
  9
$ATTMODE
 70
     1
  9
$TEXTSIZE
 40
2.5
  9
$TRACEWID
 40
1.0
  9
$TEXTSTYLE
  7
SANINDUSA
  9
$CLAYER
  8
INDUSA
  9
$CELTYPE
  6
ByLayer
  9
$CECOLOR
 62
   256
  9
$CELTSCALE
 40
1.0
  9
$DISPSILH
 70
     0
  9
$DIMSCALE
 40
1.0
  9
$DIMASZ
 40
3.0
  9
$DIMEXO
 40
1.0
  9
$DIMDLI
 40
1.0
  9
$DIMRND
 40
0.0
  9
$DIMDLE
 40
0.0
  9
$DIMEXE
 40
1.0
  9
$DIMTP
 40
0.0
  9
$DIMTM
 40
0.0
  9
$DIMTXT
 40
2.0
  9
$DIMCEN
 40
0.0
  9
$DIMTSZ
 40
0.0
  9
$DIMTOL
 70
     0
  9
$DIMLIM
 70
     0
  9
$DIMTIH
 70
     0
  9
$DIMTOH
 70
     0
  9
$DIMSE1
 70
     0
  9
$DIMSE2
 70
     0
  9
$DIMTAD
 70
     1
  9
$DIMZIN
 70
     8
  9
$DIMBLK
  1

  9
$DIMASO
 70
     1
  9
$DIMSHO
 70
     1
  9
$DIMPOST
  1

  9
$DIMAPOST
  1

  9
$DIMALT
 70
     0
  9
$DIMALTD
 70
     3
  9
$DIMALTF
 40
0.03937007874016
  9
$DIMLFAC
 40
1.0
  9
$DIMTOFL
 70
     1
  9
$DIMTVP
 40
0.0
  9
$DIMTIX
 70
     0
  9
$DIMSOXD
 70
     0
  9
$DIMSAH
 70
     0
  9
$DIMBLK1
  1

  9
$DIMBLK2
  1

  9
$DIMSTYLE
  2
SANINDUSA
  9
$DIMCLRD
 70
     1
  9
$DIMCLRE
 70
     1
  9
$DIMCLRT
 70
     1
  9
$DIMTFAC
 40
1.0
  9
$DIMGAP
 40
1.0
  9
$DIMJUST
 70
     0
  9
$DIMSD1
 70
     0
  9
$DIMSD2
 70
     0
  9
$DIMTOLJ
 70
     0
  9
$DIMTZIN
 70
     8
  9
$DIMALTZ
 70
     0
  9
$DIMALTTZ
 70
     0
  9
$DIMUPT
 70
     0
  9
$DIMDEC
 70
     1
  9
$DIMTDEC
 70
     1
  9
$DIMALTU
 70
     2
  9
$DIMALTTD
 70
     3
  9
$DIMTXSTY
  7
SANINDUSA
  9
$DIMAUNIT
 70
     0
  9
$DIMADEC
 70
     1
  9
$DIMALTRND
 40
0.0
  9
$DIMAZIN
 70
     0
  9
$DIMDSEP
 70
    44
  9
$DIMATFIT
 70
     3
  9
$DIMFRAC
 70
     0
  9
$DIMLDRBLK
  1

  9
$DIMLUNIT
 70
     2
  9
$DIMLWD
 70
    -1
  9
$DIMLWE
 70
    -1
  9
$DIMTMOVE
 70
     0
  9
$LUNITS
 70
     2
  9
$LUPREC
 70
     4
  9
$SKETCHINC
 40
1.0
  9
$FILLETRAD
 40
1.0
  9
$AUNITS
 70
     0
  9
$AUPREC
 70
     0
  9
$MENU
  1
.
  9
$ELEVATION
 40
0.0
  9
$PELEVATION
 40
0.0
  9
$THICKNESS
 40
0.0
  9
$LIMCHECK
 70
     0
  9
$CHAMFERA
 40
10.0
  9
$CHAMFERB
 40
10.0
  9
$CHAMFERC
 40
20.0
  9
$CHAMFERD
 40
0.0
  9
$SKPOLY
 70
     0
  9
$TDCREATE
 40
2452825.509858391
  9
$TDUCREATE
 40
2452825.468191725
  9
$TDUPDATE
 40
2453894.731666666
  9
$TDUUPDATE
 40
2453894.690000000
  9
$TDINDWG
 40
0.0744553588
  9
$TDUSRTIMER
 40
0.0744551852
  9
$USRTIMER
 70
     1
  9
$ANGBASE
 50
0.0
  9
$ANGDIR
 70
     0
  9
$PDMODE
 70
     0
  9
$PDSIZE
 40
0.0
  9
$PLINEWID
 40
0.0
  9
$SPLFRAME
 70
     0
  9
$SPLINETYPE
 70
     6
  9
$SPLINESEGS
 70
     8
  9
$HANDSEED
  5
17DB7
  9
$SURFTAB1
 70
     6
  9
$SURFTAB2
 70
     6
  9
$SURFTYPE
 70
     6
  9
$SURFU
 70
     6
  9
$SURFV
 70
     6
  9
$UCSBASE
  2

  9
$UCSNAME
  2

  9
$UCSORG
 10
0.0
 20
0.0
 30
0.0
  9
$UCSXDIR
 10
1.0
 20
0.0
 30
0.0
  9
$UCSYDIR
 10
0.0
 20
1.0
 30
0.0
  9
$UCSORTHOREF
  2

  9
$UCSORTHOVIEW
 70
     0
  9
$UCSORGTOP
 10
0.0
 20
0.0
 30
0.0
  9
$UCSORGBOTTOM
 10
0.0
 20
0.0
 30
0.0
  9
$UCSORGLEFT
 10
0.0
 20
0.0
 30
0.0
  9
$UCSORGRIGHT
 10
0.0
 20
0.0
 30
0.0
  9
$UCSORGFRONT
 10
0.0
 20
0.0
 30
0.0
  9
$UCSORGBACK
 10
0.0
 20
0.0
 30
0.0
  9
$PUCSBASE
  2

  9
$PUCSNAME
  2

  9
$PUCSORG
 10
0.0
 20
0.0
 30
0.0
  9
$PUCSXDIR
 10
1.0
 20
0.0
 30
0.0
  9
$PUCSYDIR
 10
0.0
 20
1.0
 30
0.0
  9
$PUCSORTHOREF
  2

  9
$PUCSORTHOVIEW
 70
     0
  9
$PUCSORGTOP
 10
0.0
 20
0.0
 30
0.0
  9
$PUCSORGBOTTOM
 10
0.0
 20
0.0
 30
0.0
  9
$PUCSORGLEFT
 10
0.0
 20
0.0
 30
0.0
  9
$PUCSORGRIGHT
 10
0.0
 20
0.0
 30
0.0
  9
$PUCSORGFRONT
 10
0.0
 20
0.0
 30
0.0
  9
$PUCSORGBACK
 10
0.0
 20
0.0
 30
0.0
  9
$USERI1
 70
     0
  9
$USERI2
 70
     0
  9
$USERI3
 70
     0
  9
$USERI4
 70
     0
  9
$USERI5
 70
     0
  9
$USERR1
 40
0.0
  9
$USERR2
 40
0.0
  9
$USERR3
 40
0.0
  9
$USERR4
 40
0.0
  9
$USERR5
 40
0.0
  9
$WORLDVIEW
 70
     1
  9
$SHADEDGE
 70
     3
  9
$SHADEDIF
 70
    70
  9
$TILEMODE
 70
     1
  9
$MAXACTVP
 70
    64
  9
$PINSBASE
 10
0.0
 20
0.0
 30
0.0
  9
$PLIMCHECK
 70
     0
  9
$PEXTMIN
 10
1.000000000000000E+20
 20
1.000000000000000E+20
 30
1.000000000000000E+20
  9
$PEXTMAX
 10
-1.000000000000000E+20
 20
-1.000000000000000E+20
 30
-1.000000000000000E+20
  9
$PLIMMIN
 10
0.0
 20
0.0
  9
$PLIMMAX
 10
420.0
 20
297.0
  9
$UNITMODE
 70
     0
  9
$VISRETAIN
 70
     1
  9
$PLINEGEN
 70
     0
  9
$PSLTSCALE
 70
     1
  9
$TREEDEPTH
 70
  3020
  9
$CMLSTYLE
  2
Standard
  9
$CMLJUST
 70
     0
  9
$CMLSCALE
 40
20.0
  9
$PROXYGRAPHICS
 70
     1
  9
$MEASUREMENT
 70
     1
  9
$CELWEIGHT
370
    -1
  9
$ENDCAPS
280
     0
  9
$JOINSTYLE
280
     0
  9
$LWDISPLAY
290
     0
  9
$INSUNITS
 70
     4
  9
$HYPERLINKBASE
  1

  9
$STYLESHEET
  1
monochrome.ctb
  9
$XEDIT
290
     1
  9
$CEPSNTYPE
380
     0
  9
$PSTYLEMODE
290
     1
  9
$FINGERPRINTGUID
  2
{B98A73AA-52AA-4C10-B469-C0E7150AC31F}
  9
$VERSIONGUID
  2
{879A87A6-6BF4-43C7-AA39-04916C64B5F2}
  9
$EXTNAMES
290
     1
  9
$PSVPSCALE
 40
0.0
  9
$OLESTARTUP
290
     0
  0
ENDSEC
  0
SECTION
  2
CLASSES
  0
CLASS
  1
ACDBDICTIONARYWDFLT
  2
AcDbDictionaryWithDefault
  3
ObjectDBX Classes
 90
        0
280
     0
281
     0
  0
CLASS
  1
ACDBPLACEHOLDER
  2
AcDbPlaceHolder
  3
ObjectDBX Classes
 90
        0
280
     0
281
     0
  0
CLASS
  1
LAYOUT
  2
AcDbLayout
  3
ObjectDBX Classes
 90
        0
280
     0
281
     0
  0
CLASS
  1
DICTIONARYVAR
  2
AcDbDictionaryVar
  3
ObjectDBX Classes
 90
        0
280
     0
281
     0
  0
CLASS
  1
DIMASSOC
  2
AcDbDimAssoc
  3
"AcDbDimAssoc|Product Desc:     AcDim ARX App For Dimension|Company:          Autodesk, Inc.|WEB Address:      www.autodesk.com"
 90
    32768
280
     0
281
     0
  0
CLASS
  1
ACME_DOCUMENT
  2
AcMeDbDoc
  3
AcMeServices
 90
    32768
280
     0
281
     0
  0
CLASS
  1
AMGSETTINGSOBJ
  2
AmgSettingsObj
  3
"AcadM|Product Description: AutoCAD Mechanical 2000|Company: Autodesk"
 90
        0
280
     0
281
     0
  0
CLASS
  1
ACMESCOPE
  2
AcMeScope
  3
AcMeServices
 90
        0
280
     0
281
     0
  0
CLASS
  1
ACMECOMMANDHISTORY
  2
AcMeCommandHistory
  3
AcMeServices
 90
        0
280
     0
281
     0
  0
CLASS
  1
ACIMSYSVARMAN
  2
AcImSysVarManager
  3
AcMeServices
 90
        0
280
     0
281
     0
  0
CLASS
  1
ACIMREALSYSVAR
  2
AcImRealSysVar
  3
AcMeServices
 90
        0
280
     0
281
     0
  0
CLASS
  1
ACIMINTSYSVAR
  2
AcImIntSysVar
  3
AcMeServices
 90
        0
280
     0
281
     0
  0
CLASS
  1
ACMEDRAWINGMAN
  2
AcMeDrawingMan
  3
AcMeServices
 90
        0
280
     0
281
     0
  0
CLASS
  1
ACMEVIEW
  2
AcMeView
  3
AcMeServices
 90
        0
280
     0
281
     0
  0
CLASS
  1
ACDBENTITYCACHE
  2
AcMeEntityCache
  3
AcMeServices
 90
    32768
280
     0
281
     0
  0
CLASS
  1
GSMANAGER
  2
AcMeGSManager
  3
AcMeServices
 90
    32768
280
     0
281
     0
  0
CLASS
  1
AMDTINTERNALREACTOR
  2
AmdtInternalReactor
  3
AcMeServices
 90
    32768
280
     0
281
     0
  0
CLASS
  1
ACMESTATEMGR
  2
AcMeStateMgr
  3
AcMeServices
 90
        0
280
     0
281
     0
  0
CLASS
  1
ACGREFMASTER
  2
AcGrefMaster
  3
AcAttribServices
 90
        0
280
     0
281
     0
  0
CLASS
  1
ACME_DATABASE
  2
AcMeDbDatabase
  3
AcMeServices
 90
    32768
280
     0
281
     0
  0
CLASS
  1
ACRFINSADJUSTERMGR
  2
AcRfInsAdjusterMgr
  3
AcMeServices
 90
    32768
280
     0
281
     0
  0
CLASS
  1
ACGREFACADMASTER
  2
AcGrefacadMaster
  3
AcGrefServices
 90
        0
280
     0
281
     0
  0
CLASS
  1
AMIMASTER
  2
AmiMaster
  3
AmiServices
 90
        0
280
     0
281
     0
  0
CLASS
  1
ACMDATADICTIONARY
  2
AcmDataDictionary
  3
"AcmSymBB|Product Description: AutoCAD Mechanical 2000|Company: Autodesk"
 90
        0
280
     0
281
     0
  0
CLASS
  1
ACMDATAENTRYBLOCK
  2
AcmDataEntryBlock
  3
"AcmSymBB|Product Description: AutoCAD Mechanical 2000|Company: Autodesk"
 90
        0
280
     0
281
     0
  0
CLASS
  1
ACIMSTRSYSVAR
  2
AcImStrSysVar
  3
AcMeServices
 90
        0
280
     0
281
     0
  0
CLASS
  1
ACMSTANDARDISO
  2
AcmStandardISO
  3
"Amdt_StdImp|Product Description: AutoCAD Mechanical 2000|Company: Autodesk"
 90
        0
280
     0
281
     0
  0
CLASS
  1
AMGOBJPROPCFG
  2
AmgObjPropCfg
  3
"AmgLay|Product Description: AutoCAD Mechanical 2000|Company: Autodesk"
 90
        1
280
     0
281
     0
  0
CLASS
  1
AMDTEDGESTANDARDISO
  2
AmdtEdgeStdISO
  3
"Amdt_StdImp|Product Description: AutoCAD Mechanical 2000|Company: Autodesk"
 90
        0
280
     0
281
     0
  0
CLASS
  1
ACMSURFSTANDARDISO
  2
AcmSurfTextStdISO
  3
"Amdt_StdImp|Product Description: AutoCAD Mechanical 2000|Company: Autodesk"
 90
        0
280
     0
281
     0
  0
CLASS
  1
ACMFCFSTANDARDISO
  2
AcmFCFStdISO
  3
"Amdt_StdImp|Product Description: AutoCAD Mechanical 2000|Company: Autodesk"
 90
        0
280
     0
281
     0
  0
CLASS
  1
ACMWELDSTANDARDISO
  2
AcmWeldingStdISO
  3
"Amdt_StdImp|Product Description: AutoCAD Mechanical 2000|Company: Autodesk"
 90
        0
280
     0
281
     0
  0
CLASS
  1
ACMIDSTANDARDISO
  2
AcmIdStdISO
  3
"Amdt_StdImp|Product Description: AutoCAD Mechanical 2000|Company: Autodesk"
 90
        0
280
     0
281
     0
  0
CLASS
  1
ACMDATUMSTANDARDISO
  2
AcmDatumStdISO
  3
"Amdt_StdImp|Product Description: AutoCAD Mechanical 2000|Company: Autodesk"
 90
        0
280
     0
281
     0
  0
CLASS
  1
ACMBOMSTANDARDISO
  2
AcmBOMStdISO
  3
"Amdt_StdImp|Product Description: AutoCAD Mechanical 2000|Company: Autodesk"
 90
        0
280
     0
281
     0
  0
CLASS
  1
ACMDETAILSTANDARDISO
  2
AmdtDetailSymStdISO
  3
"Amdt_StdImp|Product Description: AutoCAD Mechanical 2000|Company: Autodesk"
 90
        0
280
     0
281
     0
  0
CLASS
  1
ACMSECTIONSTANDARDISO
  2
AmdtSectionSymStdISO
  3
"Amdt_StdImp|Product Description: AutoCAD Mechanical 2000|Company: Autodesk"
 90
        0
280
     0
281
     0
  0
CLASS
  1
ACMCENTERLINESTANDARDISO
  2
AmdtCenterLineStdISO
  3
"Amdt_StdImp|Product Description: AutoCAD Mechanical 2000|Company: Autodesk"
 90
        0
280
     0
281
     0
  0
CLASS
  1
ACMNOTESTANDARDISO
  2
AmdtNoteStdISO
  3
"Amdt_StdImp|Product Description: AutoCAD Mechanical 2000|Company: Autodesk"
 90
        0
280
     0
281
     0
  0
CLASS
  1
ACAMGLAYSTD
  2
AcAmgLayStd
  3
"AcAmgLayStd|Product Description: AutoCAD Mechanical 2000|Company: Autodesk"
 90
        0
280
     0
281
     0
  0
CLASS
  1
ACAMGDIMSTD
  2
AcAmgDimStd
  3
"AcAmgDimStd|Product Description: AutoCAD Mechanical 2000|Company: Autodesk"
 90
        0
280
     0
281
     0
  0
CLASS
  1
ACAMGHOLECHARTSTDISO
  2
AcAmgHoleChartStdISO
  3
ACMSYMBB_MODULE_NAME
 90
        0
280
     0
281
     0
  0
CLASS
  1
ACAMGTITLESTD
  2
AcAmgTitleStd
  3
"TITLEAPP"
 90
        0
280
     0
281
     0
  0
CLASS
  1
ACAMGFILTERDAT
  2
AcAmgFilterDat
  3
"AcadM|Product Description: AutoCAD Mechanical 2000|Company: Autodesk"
 90
        0
280
     0
281
     0
  0
CLASS
  1
LAYER_INDEX
  2
AcDbLayerIndex
  3
ObjectDBX Classes
 90
        0
280
     0
281
     0
  0
CLASS
  1
IDBUFFER
  2
AcDbIdBuffer
  3
ObjectDBX Classes
 90
        0
280
     0
281
     0
  0
CLASS
  1
AM_DRAWING_MGR
  2
AcDmDwgMgr
  3
AcMechDwgViewMgmt
 90
        0
280
     0
281
     0
  0
CLASS
  1
AM_DWG_DOCUMENT
  2
AcDmDwgDocument
  3
AcMechDwgViewMgmt
 90
        0
280
     0
281
     0
  0
CLASS
  1
AM_DWG_SHEET
  2
AcDmSheet
  3
AcMechDwgViewMgmt
 90
        0
280
     0
281
     0
  0
CLASS
  1
AM_VIEWDIMPARMAP
  2
AcDmViewDimParMap
  3
AcMechDwgViewMgmt
 90
        0
280
     0
281
     0
  0
CLASS
  1
AM_DWGMGR_NAME
  2
AcDmDwgMgrName
  3
AcMechDwgViewMgmt
 90
        0
280
     0
281
     0
  0
CLASS
  1
AMDTMENUSTATEMGR
  2
AmdtMenuStateMgr
  3
McadcomServices
 90
    32768
280
     0
281
     0
  0
CLASS
  1
AMDTMCOMMENUSTATE
  2
AmdtMcomMenuState
  3
McadcomServices
 90
    32768
280
     0
281
     0
  0
CLASS
  1
ASAPP
  2
AcAsAppObject
  3
AutoSurfServices
 90
        0
280
     0
281
     0
  0
CLASS
  1
IM_STATIC_MAN
  2
AcImStaticVarManager
  3
AcMeServices
 90
        0
280
     0
281
     0
  0
CLASS
  1
ACIMDBLSTATICVAR
  2
AcImDblStaticVar
  3
AcMeServices
 90
        0
280
     0
281
     0
  0
CLASS
  1
ACIMSTRSTATICVAR
  2
AcImStrStaticVar
  3
AcMeServices
 90
        0
280
     0
281
     0
  0
CLASS
  1
ACIMINTSTATICVAR
  2
AcImIntStaticVar
  3
AcMeServices
 90
        0
280
     0
281
     0
  0
CLASS
  1
ACASGREFMASTER
  2
AcAsGrefMaster
  3
AutoSurfResolverServices
 90
        0
280
     0
281
     0
  0
CLASS
  1
ACADGREFMODULE
  2
AcAdGrefModule
  3
AdGrefServices
 90
        0
280
     0
281
     0
  0
CLASS
  1
AMDTMAPISURFMOUDULE
  2
AmdtMApiSurfModule
  3
MApiSurfServices
 90
        0
280
     0
281
     0
  0
CLASS
  1
MAPIAMMOUDLE
  2
MApiAmModule
  3
MApiAmServices
 90
        0
280
     0
281
     0
  0
CLASS
  1
AMDTADMENUSTATE
  2
AmdtAdMenuState
  3
DesignerServices
 90
    32768
280
     0
281
     0
  0
CLASS
  1
ADAPPL
  2
AcAdAppl
  3
DesignerServices
 90
        0
280
     0
281
     0
  0
CLASS
  1
DEPMGR
  2
AcAdDepMgr
  3
DesignerServices
 90
        0
280
     0
281
     0
  0
CLASS
  1
PARAMMGR
  2
AcAdParamMgr
  3
DesignerServices
 90
        0
280
     0
281
     0
  0
CLASS
  1
PARAMSCOPE
  2
AcAdParamScope
  3
DesignerServices
 90
        0
280
     0
281
     0
  0
CLASS
  1
NAMEDAPPL
  2
AcAdNamedAppl
  3
DesignerServices
 90
        0
280
     0
281
     0
  0
CLASS
  1
AMDTDMMENUSTATE
  2
AmdtDmMenuState
  3
AcMechDwgViewMgmt
 90
    32768
280
     0
281
     0
  0
CLASS
  1
MAPIADMODULE
  2
MApiAdModule
  3
MApiAdServices
 90
        0
280
     0
281
     0
  0
CLASS
  1
AMDTAMMENUSTATE
  2
AmdtAmMenuState
  3
DesignerAssemblies
 90
    32768
280
     0
281
     0
  0
CLASS
  1
ACAMPROJECT
  2
AcAmProject
  3
DesignerAssemblies
 90
        0
280
     0
281
     0
  0
CLASS
  1
ACAMGRCOMPDEF
  2
AcAmGrCompDef
  3
DesignerAssemblies
 90
        0
280
     0
281
     0
  0
CLASS
  1
ACCMCONTEXT
  2
AcCmContext
  3
DesignerAssemblies
 90
        0
280
     0
281
     0
  0
CLASS
  1
ACAMCOMPDEF
  2
AcAmCompDef
  3
DesignerAssemblies
 90
        0
280
     0
281
     0
  0
CLASS
  1
ACAMCOMPDEFMGR
  2
AcAmCompDefMgr
  3
DesignerAssemblies
 90
        0
280
     0
281
     0
  0
CLASS
  1
AMCONTEXTMGR
  2
AcAmContextMgr
  3
DesignerAssemblies
 90
        0
280
     0
281
     0
  0
CLASS
  1
ACAMCONTEXTMODELER
  2
AcAmContextModeler
  3
DesignerAssemblies
 90
        0
280
     0
281
     0
  0
CLASS
  1
CATALOGSTATE
  2
AcAmCatalogState
  3
DesignerAssemblies
 90
        0
280
     0
281
     0
  0
CLASS
  1
ACAMGRCOMPDEFSET
  2
AcAmGrCompDefSet
  3
DesignerAssemblies
 90
    32768
280
     0
281
     0
  0
CLASS
  1
AMDTBROWSERDBTAB
  2
AmdtBrowserDbTab
  3
McadcomServices
 90
    32768
280
     0
281
     0
  0
CLASS
  1
CBROWSERAPPOBJECT
  2
CBrowserAppObject
  3
McadcomServices
 90
    32768
280
     0
281
     0
  0
CLASS
  1
DM_PLACEHOLDER
  2
AcDmSelsetPlaceholder
  3
AcMechDwgViewMgmt
 90
    32768
280
     0
281
     0
  0
CLASS
  1
TABLESTYLE
  2
AcDbTableStyle
  3
ObjectDBX Classes
 90
     2047
280
     0
281
     0
  0
ENDSEC
  0
SECTION
  2
TABLES
  0
TABLE
  2
VPORT
  5
8
330
0
100
AcDbSymbolTable
 70
     2
  0
VPORT
  5
17DAE
330
8
100
AcDbSymbolTableRecord
100
AcDbViewportTableRecord
  2
*Active
 70
     0
 10
0.0
 20
0.0
 11
1.0
 21
1.0
 12
-2416.707727024016
 22
-714.7682995093195
 13
0.0
 23
0.0
 14
10.0
 24
10.0
 15
10.0
 25
10.0
 16
0.0
 26
0.0
 36
1.0
 17
97.45921446193733
 27
-2359.043295374828
 37
0.0
 40
1.458563631863649
 41
1.593939393939393
 42
50.0
 43
0.0
 44
0.0
 50
0.0
 51
0.0
 71
     0
 72
   100
 73
     1
 74
     2
 75
     0
 76
     0
 77
     0
 78
     0
281
     0
 65
     0
110
0.0
120
0.0
130
0.0
111
1.0
121
0.0
131
0.0
112
0.0
122
1.0
132
0.0
 79
     0
146
0.0
  0
ENDTAB
  0
TABLE
  2
LTYPE
  5
5
330
0
100
AcDbSymbolTable
 70
    12
  0
LTYPE
  5
14
330
5
100
AcDbSymbolTableRecord
100
AcDbLinetypeTableRecord
  2
ByBlock
 70
     0
  3

 72
    65
 73
     0
 40
0.0
  0
LTYPE
  5
15
330
5
100
AcDbSymbolTableRecord
100
AcDbLinetypeTableRecord
  2
ByLayer
 70
     0
  3

 72
    65
 73
     0
 40
0.0
  0
LTYPE
  5
16
330
5
100
AcDbSymbolTableRecord
100
AcDbLinetypeTableRecord
  2
Continuous
 70
     0
  3
Solid line
 72
    65
 73
     0
 40
0.0
  0
LTYPE
  5
19F1
330
5
100
AcDbSymbolTableRecord
100
AcDbLinetypeTableRecord
  2
CENTER
 70
     0
  3
Center ____ _ ____ _ ____ _ ____ _ ____ _ ____
 72
    65
 73
     4
 40
10.16
 49
6.349999999999999
 74
     0
 49
-1.27
 74
     0
 49
1.27
 74
     0
 49
-1.27
 74
     0
  0
LTYPE
  5
152C9
330
5
100
AcDbSymbolTableRecord
100
AcDbLinetypeTableRecord
  2
AM_ISO02W050
 70
     0
  3
__ __ __ __ __ __ __ __ __ __ __ __ __ __ __
 72
    65
 73
     2
 40
7.5
 49
6.0
 74
     0
 49
-1.5
 74
     0
  0
LTYPE
  5
152CA
330
5
100
AcDbSymbolTableRecord
100
AcDbLinetypeTableRecord
  2
AM_ISO08W050
 70
     0
  3
____ . ____ . ____ . ____ . ____ . ____ . ____
 72
    65
 73
     4
 40
18.0
 49
12.0
 74
     0
 49
-1.5
 74
     0
 49
3.0
 74
     0
 49
-1.5
 74
     0
  0
LTYPE
  5
152CB
330
5
100
AcDbSymbolTableRecord
100
AcDbLinetypeTableRecord
  2
AM_ISO09W050
 70
     0
  3
_____ . . _____ . . _____ . . ____ .. ____
 72
    65
 73
     6
 40
22.5
 49
12.0
 74
     0
 49
-1.5
 74
     0
 49
3.0
 74
     0
 49
-1.5
 74
     0
 49
3.0
 74
     0
 49
-1.5
 74
     0
  0
LTYPE
  5
152CC
330
5
100
AcDbSymbolTableRecord
100
AcDbLinetypeTableRecord
  2
Amconstr
 70
     0
  3
_______________________
 72
    65
 73
     2
 40
9999.0
 49
9999.0
 74
     0
 49
0.0
 74
     0
  0
LTYPE
  5
152CD
330
5
100
AcDbSymbolTableRecord
100
AcDbLinetypeTableRecord
  2
AM_ISO08W050x2
 70
     0
  3
__ . __ . __ . __ . __ . __
 72
    65
 73
     4
 40
9.0
 49
6.0
 74
     0
 49
-0.75
 74
     0
 49
1.5
 74
     0
 49
-0.75
 74
     0
  0
LTYPE
  5
152CE
330
5
100
AcDbSymbolTableRecord
100
AcDbLinetypeTableRecord
  2
AM_ISO02W050x2
 70
     0
  3
 _ _ _ _ _ _ _ _ _ _ _ _
 72
    65
 73
     2
 40
3.75
 49
3.0
 74
     0
 49
-0.75
 74
     0
  0
LTYPE
  5
152CF
330
5
100
AcDbSymbolTableRecord
100
AcDbLinetypeTableRecord
  2
Amzigzag
 70
     0
  3
/\/-/\/-/\/-/\/-/\/-/\/
 72
    65
 73
     2
 40
11.0001
 49
0.0001
 74
     4
 75
   135
340
2C
 46
0.04
 50
0.0
 44
0.0
 45
0.0
 49
-11.0
 74
     0
  0
LTYPE
  5
152DD
330
5
100
AcDbSymbolTableRecord
100
AcDbLinetypeTableRecord
  2
ACISOWELD
 70
     0
  3
_ _ _ _ _
 72
    65
 73
     2
 40
2.0
 49
2.0
 74
     0
 49
-1.0
 74
     0
  0
LTYPE
  5
152DE
330
5
100
AcDbSymbolTableRecord
100
AcDbLinetypeTableRecord
  2
ACISOTGB
 70
     0
  3
__ . . __ . .
 72
    65
 73
     6
 40
9.0
 49
4.0
 74
     0
 49
-1.0
 74
     0
 49
1.0
 74
     0
 49
-1.0
 74
     0
 49
1.0
 74
     0
 49
-1.0
 74
     0
  0
LTYPE
  5
152DF
330
5
100
AcDbSymbolTableRecord
100
AcDbLinetypeTableRecord
  2
ACISOTGL
 70
     0
  3
_ _ _ _ _
 72
    65
 73
     2
 40
3.0
 49
2.0
 74
     0
 49
-1.0
 74
     0
  0
ENDTAB
  0
TABLE
  2
LAYER
  5
2
330
0
100
AcDbSymbolTable
 70
     3
  0
LAYER
  5
10
330
2
100
AcDbSymbolTableRecord
100
AcDbLayerTableRecord
  2
0
 70
     0
 62
     7
  6
Continuous
370
    -3
390
F
  0
LAYER
  5
44
330
2
100
AcDbSymbolTableRecord
100
AcDbLayerTableRecord
  2
Defpoints
 70
     0
 62
     7
  6
Continuous
290
     0
370
    -3
390
F
  0
LAYER
  5
98
330
2
100
AcDbSymbolTableRecord
100
AcDbLayerTableRecord
  2
INDUSA
 70
     0
 62
     3
  6
Continuous
370
    -3
390
F
  0
ENDTAB
  0
TABLE
  2
STYLE
  5
3
330
0
100
AcDbSymbolTable
 70
     5
  0
STYLE
  5
11
330
3
100
AcDbSymbolTableRecord
100
AcDbTextStyleTableRecord
  2
Standard
 70
     0
 40
0.0
 41
1.0
 50
0.0
 71
     0
 42
2.5
  3
txt
  4

  0
STYLE
  5
2C
330
3
100
AcDbSymbolTableRecord
100
AcDbTextStyleTableRecord
  2

 70
     1
 40
0.0
 41
1.0
 50
0.0
 71
     0
 42
2.5
  3
ltypeshp.shx
  4

  0
STYLE
  5
4B
330
3
100
AcDbSymbolTableRecord
100
AcDbTextStyleTableRecord
  2
SANINDUSA
 70
     0
 40
0.0
 41
1.0
 50
0.0
 71
     0
 42
2.5
  3
simplex.shx
  4

  0
STYLE
  5
152D0
330
3
100
AcDbSymbolTableRecord
100
AcDbTextStyleTableRecord
  2
ACISOTS
 70
     0
 40
1.0
 41
1.0
 50
0.0
 71
     0
 42
2.5
  3
isocp.shx
  4

  0
STYLE
  5
152DC
330
3
100
AcDbSymbolTableRecord
100
AcDbTextStyleTableRecord
  2
ACISOGDT
 70
     0
 40
0.0
 41
1.0
 50
0.0
 71
     0
 42
2.5
  3
amgdt.shx
  4

  0
ENDTAB
  0
TABLE
  2
VIEW
  5
6
330
0
100
AcDbSymbolTable
 70
     0
  0
ENDTAB
  0
TABLE
  2
UCS
  5
7
330
0
100
AcDbSymbolTable
 70
     0
  0
ENDTAB
  0
TABLE
  2
APPID
  5
9
330
0
100
AcDbSymbolTable
 70
    14
  0
APPID
  5
12
330
9
100
AcDbSymbolTableRecord
100
AcDbRegAppTableRecord
  2
ACAD
 70
     0
  0
APPID
  5
3A
330
9
100
AcDbSymbolTableRecord
100
AcDbRegAppTableRecord
  2
DCO15
 70
     0
  0
APPID
  5
152AB
330
9
100
AcDbSymbolTableRecord
100
AcDbRegAppTableRecord
  2
MCAD_NO_VIS
 70
     0
  0
APPID
  5
152AC
330
9
100
AcDbSymbolTableRecord
100
AcDbRegAppTableRecord
  2
ACAD_TEMP_GRAPHIC
 70
     0
  0
APPID
  5
152BD
330
9
100
AcDbSymbolTableRecord
100
AcDbRegAppTableRecord
  2
ACATTRIBSERVICES
 70
     0
  0
APPID
  5
15498
330
9
100
AcDbSymbolTableRecord
100
AcDbRegAppTableRecord
  2
GENIUS_GENDTOL_13
 70
     0
  0
APPID
  5
161F6
330
9
100
AcDbSymbolTableRecord
100
AcDbRegAppTableRecord
  2
GENIUS_GENDIM_13
 70
     0
  0
APPID
  5
161F8
330
9
100
AcDbSymbolTableRecord
100
AcDbRegAppTableRecord
  2
GENIUS_GE3DTOL_13
 70
     0
  0
APPID
  5
16221
330
9
100
AcDbSymbolTableRecord
100
AcDbRegAppTableRecord
  2
AD_DRAW
 70
     0
  0
APPID
  5
1626D
330
9
100
AcDbSymbolTableRecord
100
AcDbRegAppTableRecord
  2
ASURF_PCURVE_APPNAME
 70
     0
  0
APPID
  5
16272
330
9
100
AcDbSymbolTableRecord
100
AcDbRegAppTableRecord
  2
AMG_3D2D_5.0
 70
     0
  0
APPID
  5
1629D
330
9
100
AcDbSymbolTableRecord
100
AcDbRegAppTableRecord
  2
DESIGNERASSEMBLIES
 70
     0
  0
APPID
  5
162A2
330
9
100
AcDbSymbolTableRecord
100
AcDbRegAppTableRecord
  2
ACADM_DIM_EDIT
 70
     0
  0
APPID
  5
162A3
330
9
100
AcDbSymbolTableRecord
100
AcDbRegAppTableRecord
  2
AMDT_DM_ADJ
 70
     0
  0
ENDTAB
  0
TABLE
  2
DIMSTYLE
  5
A
330
0
100
AcDbSymbolTable
 70
     9
100
AcDbDimStyleTable
 71
     1
340
4C
  0
DIMSTYLE
105
46
330
A
100
AcDbSymbolTableRecord
100
AcDbDimStyleTableRecord
  2
Standard
 70
     0
340
11
  0
DIMSTYLE
105
4C
330
A
100
AcDbSymbolTableRecord
100
AcDbDimStyleTableRecord
  2
SANINDUSA
 70
     0
 41
3.0
 42
1.0
 43
1.0
 44
1.0
 73
     0
 74
     0
 77
     1
 78
     8
140
2.0
141
0.0
143
0.03937007874016
147
1.0
171
     3
172
     1
176
     1
177
     1
178
     1
179
     1
271
     1
272
     1
274
     3
278
    44
283
     0
284
     8
340
4B
371
    -1
372
    -1
  0
DIMSTYLE
105
152E3
330
A
100
AcDbSymbolTableRecord
100
AcDbDimStyleTableRecord
  2
AM_ISO
 70
     0
  4
"
 41
2.5
 42
1.0
 43
10.0
 44
1.0
 47
0.1
 48
0.1
 73
     0
 74
     0
 77
     1
 78
     8
 79
     2
140
3.5
141
0.0
143
0.0393701
146
0.71
147
1.5
172
     1
176
   256
177
   256
178
     2
271
     2
272
     3
274
     4
283
     0
284
     8
340
11
371
    -1
372
    -1
  0
DIMSTYLE
105
152E4
330
A
100
AcDbSymbolTableRecord
100
AcDbDimStyleTableRecord
  2
AM_ISO$3
 70
     0
  4
"
 41
2.5
 42
1.0
 43
10.0
 44
1.0
 47
0.1
 48
0.1
 73
     0
 77
     1
 78
     8
 79
     2
140
3.5
141
0.0
143
0.0393701
146
0.71
147
1.5
176
   256
177
   256
178
     2
271
     2
272
     3
274
     4
283
     0
284
     8
288
     1
289
     0
340
11
371
    -1
372
    -1
  0
DIMSTYLE
105
152E5
330
A
100
AcDbSymbolTableRecord
100
AcDbDimStyleTableRecord
  2
AM_ISO$4
 70
     0
  4
"
 41
2.5
 42
1.0
 43
10.0
 44
1.0
 47
0.1
 48
0.1
 73
     0
 77
     1
 78
     8
 79
     2
140
3.5
141
0.0
143
0.0393701
146
0.71
147
1.5
176
   256
177
   256
178
     2
271
     2
272
     3
274
     4
283
     0
284
     8
288
     1
289
     0
340
11
371
    -1
372
    -1
  0
DIMSTYLE
105
152E6
330
A
100
AcDbSymbolTableRecord
100
AcDbDimStyleTableRecord
  2
AM_ISO$6
 70
     0
  4
"
 41
2.5
 42
1.0
 43
10.0
 44
1.0
 47
0.1
 48
0.1
 73
     0
 74
     0
 78
     8
 79
     2
140
3.5
141
0.0
143
0.0393701
146
0.71
147
1.5
172
     1
176
   256
177
   256
178
     2
271
     2
272
     3
274
     4
283
     0
284
     8
340
11
371
    -1
372
    -1
  0
DIMSTYLE
105
152E7
330
A
100
AcDbSymbolTableRecord
100
AcDbDimStyleTableRecord
  2
AM_ISO$7
 70
     0
  4
"
 41
2.5
 42
1.0
 43
10.0
 44
1.0
 47
0.1
 48
0.1
 73
     0
 74
     0
 77
     1
 78
     8
 79
     2
140
5.0
141
0.0
143
0.0393701
146
0.71
147
1.5
172
     1
176
   256
177
   256
178
     2
271
     2
272
     3
274
     4
283
     0
284
     8
340
11
371
    -1
372
    -1
  0
DIMSTYLE
105
152E8
330
A
100
AcDbSymbolTableRecord
100
AcDbDimStyleTableRecord
  2
AM_ISO$SF
 70
     0
  4
"
 41
2.5
 42
1.0
 43
10.0
 44
1.0
 47
0.1
 48
0.1
 73
     0
 74
     0
 75
     1
 76
     1
 77
     1
 78
     8
 79
     2
140
3.5
141
0.0
143
0.0393701
146
0.71
147
1.5
172
     1
176
   256
177
   256
178
     2
271
     2
272
     3
274
     4
283
     0
284
     8
340
11
371
    -1
372
    -1
  0
DIMSTYLE
105
152ED
330
A
100
AcDbSymbolTableRecord
100
AcDbDimStyleTableRecord
  2
AM_ISO$SH
 70
     0
  4
"
 41
2.5
 42
1.0
 43
10.0
 44
1.0
 47
0.1
 48
0.1
 73
     0
 74
     0
 75
     1
 76
     1
 77
     1
 78
     8
 79
     2
140
3.5
141
0.0
143
0.0393701
144
2.0
146
0.71
147
1.5
172
     1
173
     1
176
   256
177
   256
178
     2
271
     2
272
     3
274
     4
283
     0
284
     8
340
11
343
152E9
371
    -1
372
    -1
  0
ENDTAB
  0
TABLE
  2
BLOCK_RECORD
  5
1
330
0
100
AcDbSymbolTable
 70
     3
  0
BLOCK_RECORD
  5
1F
102
{ACAD_XDICTIONARY
360
15341
102
}
330
1
100
AcDbSymbolTableRecord
100
AcDbBlockTableRecord
  2
*Model_Space
340
22
  0
BLOCK_RECORD
  5
1B
330
1
100
AcDbSymbolTableRecord
100
AcDbBlockTableRecord
  2
*Paper_Space
340
1E
  0
BLOCK_RECORD
  5
23
330
1
100
AcDbSymbolTableRecord
100
AcDbBlockTableRecord
  2
*Paper_Space0
340
26
  0
BLOCK_RECORD
  5
152E9
330
1
100
AcDbSymbolTableRecord
100
AcDbBlockTableRecord
  2
GENAXEH
340
0
  0
BLOCK_RECORD
  5
16294
330
1
100
AcDbSymbolTableRecord
100
AcDbBlockTableRecord
  2
*U2
340
0
  0
ENDTAB
  0
ENDSEC
  0
SECTION
  2
BLOCKS
  0
BLOCK
  5
20
330
1F
100
AcDbEntity
  8
0
100
AcDbBlockBegin
  2
*Model_Space
 70
     0
 10
0.0
 20
0.0
 30
0.0
  3
*Model_Space
  1

  0
ENDBLK
  5
21
330
1F
100
AcDbEntity
  8
0
100
AcDbBlockEnd
  0
BLOCK
  5
1C
330
1B
100
AcDbEntity
 67
     1
  8
0
100
AcDbBlockBegin
  2
*Paper_Space
 70
     0
 10
0.0
 20
0.0
 30
0.0
  3
*Paper_Space
  1

  0
ENDBLK
  5
1D
330
1B
100
AcDbEntity
 67
     1
  8
0
100
AcDbBlockEnd
  0
BLOCK
  5
24
330
23
100
AcDbEntity
 67
     1
  8
0
100
AcDbBlockBegin
  2
*Paper_Space0
 70
     0
 10
0.0
 20
0.0
 30
0.0
  3
*Paper_Space0
  1

  0
ENDBLK
  5
25
330
23
100
AcDbEntity
 67
     1
  8
0
100
AcDbBlockEnd
  0
BLOCK
  5
152EB
330
152E9
100
AcDbEntity
  8
0
100
AcDbBlockBegin
  2
GENAXEH
 70
     0
 10
0.0
 20
0.0
 30
0.0
  3
GENAXEH
  1

  0
LINE
  5
152EA
330
152E9
100
AcDbEntity
  8
0
100
AcDbLine
 10
-1.0
 20
0.0
 30
0.0
 11
1.0
 21
0.0
 31
0.0
  0
ENDBLK
  5
152EC
330
152E9
100
AcDbEntity
  8
0
100
AcDbBlockEnd
  0
BLOCK
  5
16295
330
16294
100
AcDbEntity
  8
0
100
AcDbBlockBegin
  2
*U2
 70
     1
 10
0.0
 20
0.0
 30
0.0
  3
*U2
  1

  0
ENDBLK
  5
16296
330
16294
100
AcDbEntity
  8
0
100
AcDbBlockEnd
  0
ENDSEC
  0
SECTION
  2
ENTITIES
  0
LWPOLYLINE
  5
1780B
330
1F
100
AcDbEntity
  8
INDUSA
  6
Continuous
100
AcDbPolyline
 90
       26
 70
   128
 43
0.0
 10
-2319.596365729619
 20
-3073.847912962591
 10
-2319.581705420937
 20
-3073.847359089872
 10
-2319.567045112254
 20
-3073.845684519023
 10
-2319.557881394491
 20
-3073.844051699208
 10
-2319.548847837078
 20
-3073.841983462763
 10
-2319.539899694511
 20
-3073.839464753988
 10
-2319.531290493838
 20
-3073.836575309597
 10
-2319.522352507218
 20
-3073.833058380737
 10
-2319.513686727988
 20
-3073.829105012411
 10
-2319.505415552292
 20
-3073.824783016962
 10
-2319.497465646387
 20
-3073.820068641617
 10
-2319.489797937781
 20
-3073.814934557882
 10
-2319.482629254847
 20
-3073.809538622996
 10
-2319.475407183244
 20
-3073.803423127053
 10
-2319.468643922883
 20
-3073.79696053264
 10
-2319.462553401063
 20
-3073.790396813204
 10
-2319.456929190248
 20
-3073.783555825571
 10
-2319.451746337663
 20
-3073.776401709269
 10
-2319.447140344557
 20
-3073.769139531596
 10
-2319.442788712072
 20
-3073.761195839387
 10
-2319.439012089334
 20
-3073.753054446595
 10
-2319.435974148469
 20
-3073.745184134855
 10
-2319.433468526835
 20
-3073.73718728969
 10
-2319.4314884013
 20
-3073.729025705118
 10
-2319.430077338696
 20
-3073.720913527592
 10
-2319.429877058619
 20
-3073.719006267604
  0
LWPOLYLINE
  5
1780D
330
1F
100
AcDbEntity
  8
INDUSA
  6
Continuous
100
AcDbPolyline
 90
       15
 70
   128
 43
0.0
 10
-2319.428926724755
 20
-3073.851561926448
 10
-2319.429021526588
 20
-3073.860696676013
 10
-2319.429549822405
 20
-3073.870686867976
 10
-2319.430452531745
 20
-3073.880650185617
 10
-2319.43173919775
 20
-3073.890629257375
 10
-2319.433406998223
 20
-3073.900551699112
 10
-2319.435432430097
 20
-3073.910290884652
 10
-2319.43783418129
 20
-3073.919944083355
 10
-2319.440815681134
 20
-3073.930134241688
 10
-2319.444231645461
 20
-3073.940186950496
 10
-2319.450883717661
 20
-3073.956539391732
 10
-2319.454691676253
 20
-3073.964561128193
 10
-2319.458811565941
 20
-3073.972427085443
 10
-2319.463193486274
 20
-3073.980034944274
 10
-2319.464689374149
 20
-3073.982402380608
  0
LWPOLYLINE
  5
1780E
330
1F
100
AcDbEntity
  8
INDUSA
  6
Continuous
100
AcDbPolyline
 90
       36
 70
   128
 43
0.0
 10
-2319.429843293018
 20
-3073.687970578545
 10
-2319.430641675872
 20
-3073.682416178818
 10
-2319.431850578301
 20
-3073.676218483329
 10
-2319.433368782979
 20
-3073.670076543728
 10
-2319.435194741481
 20
-3073.663996012001
 10
-2319.437326842088
 20
-3073.657982687207
 10
-2319.439762859264
 20
-3073.652043652938
 10
-2319.442501028748
 20
-3073.646184333735
 10
-2319.445538658291
 20
-3073.640414532888
 10
-2319.44882988301
 20
-3073.634821299159
 10
-2319.452395368374
 20
-3073.629359550881
 10
-2319.456231735536
 20
-3073.624033617635
 10
-2319.46033048117
 20
-3073.618855347502
 10
-2319.464682408279
 20
-3073.613836178079
 10
-2319.469277715333
 20
-3073.608987037179
 10
-2319.474106103108
 20
-3073.604318252439
 10
-2319.479156892167
 20
-3073.599839477691
 10
-2319.484419146706
 20
-3073.595559638107
 10
-2319.489884980315
 20
-3073.591486168871
 10
-2319.49550185199
 20
-3073.587655383166
 10
-2319.501323611733
 20
-3073.584024390106
 10
-2319.507341890557
 20
-3073.580599258822
 10
-2319.513537657488
 20
-3073.577392043502
 10
-2319.519887970088
 20
-3073.574415170688
 10
-2319.526372043193
 20
-3073.571678290575
 10
-2319.53296894488
 20
-3073.56918974899
 10
-2319.539657839031
 20
-3073.566956561587
 10
-2319.546418283132
 20
-3073.564984394314
 10
-2319.553228990235
 20
-3073.563277119026
 10
-2319.560115278548
 20
-3073.561823706939
 10
-2319.567102733074
 20
-3073.560619081658
 10
-2319.574157415936
 20
-3073.55967092147
 10
-2319.58126259858
 20
-3073.558982180351
 10
-2319.588401218834
 20
-3073.55855510656
 10
-2319.595555457024
 20
-3073.558391198457
 10
-2319.596366832898
 20
-3073.558402532861
  0
LWPOLYLINE
  5
17817
330
1F
100
AcDbEntity
  8
INDUSA
  6
Continuous
100
AcDbPolyline
 90
       15
 70
   128
 43
0.0
 10
-2319.763691993684
 20
-3073.851563354249
 10
-2319.76370993265
 20
-3073.860696676013
 10
-2319.763181636834
 20
-3073.870686867976
 10
-2319.762278927494
 20
-3073.880650185617
 10
-2319.760992261489
 20
-3073.890629257375
 10
-2319.759324461016
 20
-3073.900551699112
 10
-2319.757299029141
 20
-3073.910290884652
 10
-2319.754897277949
 20
-3073.919944083355
 10
-2319.751915778105
 20
-3073.930134241688
 10
-2319.748499813778
 20
-3073.940186950496
 10
-2319.741847741578
 20
-3073.956539391732
 10
-2319.738039782986
 20
-3073.964561128193
 10
-2319.733919893298
 20
-3073.972427085443
 10
-2319.729537972965
 20
-3073.980034944274
 10
-2319.727603851012
 20
-3073.983095942804
  0
LWPOLYLINE
  5
17818
330
1F
100
AcDbEntity
  8
INDUSA
  6
Continuous
100
AcDbPolyline
 90
       25
 70
   128
 43
0.0
 10
-2319.596366244962
 20
-3074.06348987576
 10
-2319.591270623469
 20
-3074.063406273202
 10
-2319.584826687254
 20
-3074.062988962212
 10
-2319.57837353747
 20
-3074.062258588156
 10
-2319.571926244822
 20
-3074.061214749007
 10
-2319.565500945511
 20
-3074.059857892239
 10
-2319.559114738714
 20
-3074.058189457451
 10
-2319.552785545508
 20
-3074.056211999259
 10
-2319.5465319312
 20
-3074.053929283565
 10
-2319.540372895321
 20
-3074.0513463509
 10
-2319.534328029027
 20
-3074.048470028135
 10
-2319.528412499369
 20
-3074.045315823646
 10
-2319.522513016877
 20
-3074.041822747566
 10
-2319.516692433393
 20
-3074.038018619174
 10
-2319.510959624464
 20
-3074.033904125572
 10
-2319.505325287111
 20
-3074.029481354364
 10
-2319.499801463654
 20
-3074.024753797457
 10
-2319.494401529853
 20
-3074.019726639905
 10
-2319.489140143954
 20
-3074.01440704418
 10
-2319.484033155093
 20
-3074.008804422247
 10
-2319.479097465278
 20
-3074.002930682526
 10
-2319.474350938084
 20
-3073.996800748161
 10
-2319.469807564672
 20
-3073.990438381276
 10
-2319.465395820159
 20
-3073.98373262191
 10
-2319.46461903584
 20
-3073.982447737491
  0
LWPOLYLINE
  5
17819
330
1F
100
AcDbEntity
  8
INDUSA
  6
Continuous
100
AcDbPolyline
 90
       25
 70
   128
 43
0.0
 10
-2319.727667453166
 20
-3073.983137048385
 10
-2319.726204346936
 20
-3073.985506239728
 10
-2319.721630062133
 20
-3073.992302898503
 10
-2319.716836648858
 20
-3073.998850244313
 10
-2319.711860923522
 20
-3074.005096131041
 10
-2319.706746627506
 20
-3074.0109995748
 10
-2319.701450403468
 20
-3074.016624418348
 10
-2319.6959906964
 20
-3074.021955847597
 10
-2319.69038531614
 20
-3074.026981725682
 10
-2319.684650965716
 20
-3074.031692670016
 10
-2319.678803064162
 20
-3074.036081789186
 10
-2319.672855627355
 20
-3074.040144380253
 10
-2319.666821200081
 20
-3074.043877605126
 10
-2319.660710832337
 20
-3074.047280160745
 10
-2319.654534068295
 20
-3074.050351152241
 10
-2319.648357491884
 20
-3074.053062989112
 10
-2319.642107239269
 20
-3074.055460745813
 10
-2319.635762210827
 20
-3074.057555812942
 10
-2319.62934173072
 20
-3074.059342010117
 10
-2319.622864961373
 20
-3074.060814470819
 10
-2319.616350636301
 20
-3074.061969635009
 10
-2319.609816835376
 20
-3074.062805192244
 10
-2319.603280791633
 20
-3074.063319987561
 10
-2319.59675873563
 20
-3074.063513896236
 10
-2319.596366021686
 20
-3074.063506261968
  0
LWPOLYLINE
  5
1781A
330
1F
100
AcDbEntity
  8
INDUSA
  6
Continuous
100
AcDbPolyline
 90
        7
 70
   128
 43
0.0
 10
-2319.633308072158
 20
-3073.651738934853
 10
-2319.633218467306
 20
-3073.653005589009
 10
-2319.63273567598
 20
-3073.658790207222
 10
-2319.632117478414
 20
-3073.664793142541
 10
-2319.63136576455
 20
-3073.670996042883
 10
-2319.630482832518
 20
-3073.67737994484
 10
-2319.629471381603
 20
-3073.683925331645
  0
LWPOLYLINE
  5
1781C
330
1F
100
AcDbEntity
  8
INDUSA
  6
Continuous
100
AcDbPolyline
 90
       23
 70
   128
 43
0.0
 10
-2319.596365729619
 20
-3073.590692902769
 10
-2319.60551566583
 20
-3073.590976432714
 10
-2319.614665602041
 20
-3073.591835408443
 10
-2319.62519573987
 20
-3073.593553005357
 10
-2319.635582620006
 20
-3073.596045273024
 10
-2319.645511960755
 20
-3073.599222064321
 10
-2319.655906929515
 20
-3073.603460225205
 10
-2319.665591941489
 20
-3073.608360958348
 10
-2319.674782509606
 20
-3073.613998817573
 10
-2319.683203353958
 20
-3073.620176066967
 10
-2319.69162521336
 20
-3073.627568038493
 10
-2319.698905678948
 20
-3073.635239901746
 10
-2319.705396652169
 20
-3073.64346923697
 10
-2319.710922076702
 20
-3073.651993883813
 10
-2319.715919057268
 20
-3073.661664640378
 10
-2319.719777570807
 20
-3073.671490547127
 10
-2319.722589957478
 20
-3073.681638783261
 10
-2319.724289578149
 20
-3073.691788726295
 10
-2319.724920666823
 20
-3073.702950212434
 10
-2319.724629497461
 20
-3073.710443444252
 10
-2319.723760679735
 20
-3073.717936476064
 10
-2319.721894095478
 20
-3073.727099151972
 10
-2319.720110918899
 20
-3073.732967893064
  0
LWPOLYLINE
  5
1781D
330
1F
100
AcDbEntity
  8
INDUSA
  6
Continuous
100
AcDbPolyline
 90
        7
 70
   128
 43
0.0
 10
-2319.559423577817
 20
-3073.651741725673
 10
-2319.559512991931
 20
-3073.653005589009
 10
-2319.559995783258
 20
-3073.658790207222
 10
-2319.560613980825
 20
-3073.664793142541
 10
-2319.561365694688
 20
-3073.670996042883
 10
-2319.562248626721
 20
-3073.67737994484
 10
-2319.563260077636
 20
-3073.683925331645
  0
LWPOLYLINE
  5
1781F
330
1F
100
AcDbEntity
  8
INDUSA
  6
Continuous
100
AcDbPolyline
 90
       23
 70
   128
 43
0.0
 10
-2319.596365729619
 20
-3073.590692902769
 10
-2319.587189569566
 20
-3073.590978903637
 10
-2319.578065857198
 20
-3073.591835408443
 10
-2319.567350689613
 20
-3073.593598276485
 10
-2319.556826630807
 20
-3073.596150271252
 10
-2319.546611853328
 20
-3073.599451038804
 10
-2319.536824529724
 20
-3073.603460225205
 10
-2319.526971250273
 20
-3073.608462877678
 10
-2319.517669263967
 20
-3073.614203049729
 10
-2319.509015339577
 20
-3073.620598762841
 10
-2319.501106245879
 20
-3073.627568038493
 10
-2319.493711349399
 20
-3073.635383592239
 10
-2319.487158721536
 20
-3073.643740640367
 10
-2319.481506394867
 20
-3073.652535538029
 10
-2319.476812401971
 20
-3073.661664640378
 10
-2319.472901726432
 20
-3073.671675066792
 10
-2319.470083904101
 20
-3073.681975831567
 10
-2319.468379928316
 20
-3073.692442393762
 10
-2319.467810792415
 20
-3073.702950212434
 10
-2319.468103122407
 20
-3073.710458496668
 10
-2319.468970779503
 20
-3073.717936476064
 10
-2319.470877861524
 20
-3073.727232873564
 10
-2319.472657832021
 20
-3073.733037516032
  0
LWPOLYLINE
  5
17823
330
1F
100
AcDbEntity
  8
INDUSA
  6
Continuous
100
AcDbPolyline
 90
       37
 70
   128
 43
0.0
 10
-2319.708170840028
 20
-3073.758199079205
 10
-2319.708990587442
 20
-3073.755284539598
 10
-2319.709987484727
 20
-3073.750608744803
 10
-2319.710677822781
 20
-3073.745885824087
 10
-2319.711056053241
 20
-3073.741137684109
 10
-2319.711118792375
 20
-3073.736389822631
 10
-2319.710865557727
 20
-3073.731666691407
 10
-2319.710294423398
 20
-3073.726968050335
 10
-2319.70941128428
 20
-3073.722306496323
 10
-2319.708211072397
 20
-3073.717644553538
 10
-2319.706697349389
 20
-3073.713009766358
 10
-2319.704877160341
 20
-3073.708430940171
 10
-2319.702761837794
 20
-3073.703938467065
 10
-2319.700363943015
 20
-3073.699557406318
 10
-2319.697697969025
 20
-3073.695310816926
 10
-2319.694778816782
 20
-3073.691217701405
 10
-2319.691615918404
 20
-3073.687277881588
 10
-2319.688171410192
 20
-3073.683439411996
 10
-2319.684473813431
 20
-3073.679737953165
 10
-2319.680538132286
 20
-3073.676188737397
 10
-2319.676380238635
 20
-3073.67280574018
 10
-2319.672016548143
 20
-3073.669601518169
 10
-2319.66746366389
 20
-3073.666587089619
 10
-2319.662738028076
 20
-3073.663771884602
 10
-2319.657855652094
 20
-3073.661163789875
 10
-2319.65282234877
 20
-3073.658767430857
 10
-2319.647719302445
 20
-3073.656613382285
 10
-2319.642446344467
 20
-3073.654652166283
 10
-2319.637027931646
 20
-3073.652895132628
 10
-2319.631491646841
 20
-3073.651352743468
 10
-2319.625866559478
 20
-3073.650033755296
 10
-2319.620180114362
 20
-3073.648944532767
 10
-2319.61445947836
 20
-3073.648089645325
 10
-2319.608730967305
 20
-3073.647471871546
 10
-2319.60301837382
 20
-3073.647092083391
 10
-2319.597313488578
 20
-3073.646944938592
 10
-2319.596366398515
 20
-3073.646958463425
  0
LWPOLYLINE
  5
17824
330
1F
100
AcDbEntity
  8
INDUSA
  6
Continuous
100
AcDbPolyline
 90
       36
 70
   128
 43
0.0
 10
-2319.596367156498
 20
-3073.558395927155
 10
-2319.603102347422
 20
-3073.558508216927
 10
-2319.610218753322
 20
-3073.558888301616
 10
-2319.617315944483
 20
-3073.559529645049
 10
-2319.62437724028
 20
-3073.560431424341
 10
-2319.631385059309
 20
-3073.561591966326
 10
-2319.638322198469
 20
-3073.563008848442
 10
-2319.645172447244
 20
-3073.564679172916
 10
-2319.651908892573
 20
-3073.566596650018
 10
-2319.658531290252
 20
-3073.568757137821
 10
-2319.6650805362
 20
-3073.571173027501
 10
-2319.671536751192
 20
-3073.573839612481
 10
-2319.677879694274
 20
-3073.576750989564
 10
-2319.684088744918
 20
-3073.579899946692
 10
-2319.690143186805
 20
-3073.58327797362
 10
-2319.696022508322
 20
-3073.586875313431
 10
-2319.701704534772
 20
-3073.590679533446
 10
-2319.707169621579
 20
-3073.594677913489
 10
-2319.71239619781
 20
-3073.598848534282
 10
-2319.717462209048
 20
-3073.603252127878
 10
-2319.72231655166
 20
-3073.607850457503
 10
-2319.726948384904
 20
-3073.612635311026
 10
-2319.731346901789
 20
-3073.617597641212
 10
-2319.735501546452
 20
-3073.622727673502
 10
-2319.739402136585
 20
-3073.628014954116
 10
-2319.743038981804
 20
-3073.633448417169
 10
-2319.746402993544
 20
-3073.639016469328
 10
-2319.74948539397
 20
-3073.64470621939
 10
-2319.752271199877
 20
-3073.650480438065
 10
-2319.7547852994
 20
-3073.656393077281
 10
-2319.756996187248
 20
-3073.66238027471
 10
-2319.758902222998
 20
-3073.668436469161
 10
-2319.760501758074
 20
-3073.674556025059
 10
-2319.761792944512
 20
-3073.680732142487
 10
-2319.762774224264
 20
-3073.686958387729
 10
-2319.76287986984
 20
-3073.687947106671
  0
LWPOLYLINE
  5
17825
330
1F
100
AcDbEntity
  8
INDUSA
  6
Continuous
100
AcDbPolyline
 90
       34
 70
   128
 43
0.0
 10
-2319.59636500154
 20
-3073.646953798298
 10
-2319.595745433067
 20
-3073.646943432109
 10
-2319.589981298387
 20
-3073.647080015352
 10
-2319.584263354565
 20
-3073.647449218405
 10
-2319.578605114437
 20
-3073.648047211984
 10
-2319.572962843847
 20
-3073.648875036025
 10
-2319.567336853797
 20
-3073.649934125742
 10
-2319.561752429937
 20
-3073.651222359228
 10
-2319.556235917769
 20
-3073.652735943471
 10
-2319.550814361809
 20
-3073.654469316805
 10
-2319.545514947785
 20
-3073.656415144452
 10
-2319.540365922005
 20
-3073.658563725649
 10
-2319.535394648987
 20
-3073.660903408837
 10
-2319.530617833382
 20
-3073.663421958208
 10
-2319.525956235863
 20
-3073.666157952397
 10
-2319.521456593407
 20
-3073.669088703186
 10
-2319.51713034065
 20
-3073.672209101316
 10
-2319.512993154785
 20
-3073.675510580495
 10
-2319.509061063584
 20
-3073.678983076298
 10
-2319.505350160401
 20
-3073.682615005754
 10
-2319.501876271124
 20
-3073.686393325046
 10
-2319.498654610343
 20
-3073.690303656245
 10
-2319.495699260764
 20
-3073.694331676001
 10
-2319.49302062976
 20
-3073.698463945473
 10
-2319.490597570223
 20
-3073.702728886881
 10
-2319.488435631144
 20
-3073.707123016474
 10
-2319.4865498176
 20
-3073.711625223683
 10
-2319.484953633835
 20
-3073.71621226755
 10
-2319.483658680269
 20
-3073.720859061673
 10
-2319.482674633167
 20
-3073.725536953228
 10
-2319.482008011377
 20
-3073.730215690086
 10
-2319.481658992032
 20
-3073.734883831432
 10
-2319.481620210282
 20
-3073.739588516365
 10
-2319.482508095752
 20
-3073.754905453037
  0
LWPOLYLINE
  5
17826
330
1F
100
AcDbEntity
  8
INDUSA
  6
Continuous
100
AcDbPolyline
 90
       26
 70
   128
 43
0.0
 10
-2319.596365729619
 20
-3073.847912962591
 10
-2319.611026038302
 20
-3073.847359089872
 10
-2319.625686346985
 20
-3073.845684519023
 10
-2319.634850064748
 20
-3073.844051699208
 10
-2319.643883622161
 20
-3073.841983462763
 10
-2319.652831764727
 20
-3073.839464753988
 10
-2319.661440965401
 20
-3073.836575309597
 10
-2319.670378952021
 20
-3073.833058380737
 10
-2319.67904473125
 20
-3073.829105012411
 10
-2319.687315906946
 20
-3073.824783016962
 10
-2319.695265812852
 20
-3073.820068641617
 10
-2319.702933521458
 20
-3073.814934557882
 10
-2319.710102204392
 20
-3073.809538622996
 10
-2319.717324275995
 20
-3073.803423127053
 10
-2319.724087536355
 20
-3073.79696053264
 10
-2319.730178058176
 20
-3073.790396813204
 10
-2319.73580226899
 20
-3073.783555825571
 10
-2319.740985121575
 20
-3073.776401709269
 10
-2319.745591114681
 20
-3073.769139531596
 10
-2319.749942747167
 20
-3073.761195839387
 10
-2319.753719369904
 20
-3073.753054446595
 10
-2319.75675731077
 20
-3073.745184134855
 10
-2319.759262932403
 20
-3073.73718728969
 10
-2319.761243057939
 20
-3073.729025705118
 10
-2319.762654120542
 20
-3073.720913527592
 10
-2319.762856148158
 20
-3073.71898962586
  0
LWPOLYLINE
  5
17827
330
1F
100
AcDbEntity
  8
INDUSA
  6
Continuous
100
AcDbPolyline
 90
       24
 70
   128
 43
0.0
 10
-2319.596365397502
 20
-3073.814758021085
 10
-2319.600572453164
 20
-3073.814725095118
 10
-2319.606748966902
 20
-3073.814420385338
 10
-2319.612905666911
 20
-3073.813859421927
 10
-2319.619021822804
 20
-3073.813043431213
 10
-2319.625075986391
 20
-3073.811974906928
 10
-2319.631047739553
 20
-3073.810657366343
 10
-2319.636911904269
 20
-3073.80909660207
 10
-2319.642678973062
 20
-3073.807293469686
 10
-2319.648376779003
 20
-3073.805239646188
 10
-2319.653983407905
 20
-3073.802940243393
 10
-2319.659476420905
 20
-3073.800401938861
 10
-2319.664832973938
 20
-3073.797633083487
 10
-2319.67003023219
 20
-3073.794643668727
 10
-2319.675045804685
 20
-3073.791445224216
 10
-2319.67985629579
 20
-3073.788052041729
 10
-2319.684446696188
 20
-3073.784477266706
 10
-2319.688856850055
 20
-3073.780692760954
 10
-2319.693068448907
 20
-3073.776710701921
 10
-2319.697067942506
 20
-3073.772540671304
 10
-2319.700840872281
 20
-3073.768194406256
 10
-2319.704373040357
 20
-3073.763685006785
 10
-2319.707650770625
 20
-3073.759026839717
 10
-2319.708654687675
 20
-3073.757428970497
  0
LINE
  5
17828
330
1F
100
AcDbEntity
  8
INDUSA
  6
Continuous
100
AcDbLine
 10
-2319.763865729619
 20
-3073.703585413518
 30
0.0
 11
-2319.763865729619
 21
-3073.851563013607
 31
0.0
  0
LWPOLYLINE
  5
17829
330
1F
100
AcDbEntity
  8
INDUSA
  6
Continuous
100
AcDbPolyline
 90
        5
 70
   128
 43
0.0
 10
-2319.720110918899
 20
-3073.732967893064
 10
-2319.719138557167
 20
-3073.736168102913
 10
-2319.715562136943
 20
-3073.744917436938
 10
-2319.710803734494
 20
-3073.7540083045
 10
-2319.708519823611
 20
-3073.757547870735
  0
LWPOLYLINE
  5
1782A
330
1F
100
AcDbEntity
  8
INDUSA
  6
Continuous
100
AcDbPolyline
 90
        5
 70
   128
 43
0.0
 10
-2319.762856148158
 20
-3073.71898962586
 10
-2319.76356241615
 20
-3073.712263861124
 10
-2319.763865729619
 20
-3073.703585413519
 10
-2319.763217249009
 20
-3073.690897664665
 10
-2319.762846042867
 20
-3073.688147214405
  0
LWPOLYLINE
  5
1782B
330
1F
100
AcDbEntity
  8
INDUSA
  6
Continuous
100
AcDbPolyline
 90
        3
 70
   128
 43
0.0
 10
-2319.553678888018
 20
-3073.692661159253
 10
-2319.55461305906
 20
-3073.694212370725
 10
-2319.55546489662
 20
-3073.695562801173
  0
LWPOLYLINE
  5
1782D
330
1F
100
AcDbEntity
  8
INDUSA
  6
Continuous
100
AcDbPolyline
 90
        9
 70
   128
 43
0.0
 10
-2319.552784483073
 20
-3073.691048374896
 10
-2319.552639180908
 20
-3073.690301332065
 10
-2319.552784445968
 20
-3073.689707682574
 10
-2319.553307103271
 20
-3073.689875313776
 10
-2319.554050106221
 20
-3073.690671644569
 10
-2319.55492221534
 20
-3073.691883256389
 10
-2319.555912414028
 20
-3073.693402893689
 10
-2319.556997181714
 20
-3073.695122369342
 10
-2319.557061129233
 20
-3073.695224048628
  0
LWPOLYLINE
  5
1782E
330
1F
100
AcDbEntity
  8
INDUSA
  6
Continuous
100
AcDbPolyline
 90
        4
 70
   128
 43
0.0
 10
-2319.557061129233
 20
-3073.695224048628
 10
-2319.557044038027
 20
-3073.695194880358
 10
-2319.554281546746
 20
-3073.68934589208
 10
-2319.552562611959
 20
-3073.682945104426
  0
LWPOLYLINE
  5
1782F
330
1F
100
AcDbEntity
  8
INDUSA
  6
Continuous
100
AcDbPolyline
 90
       24
 70
   128
 43
0.0
 10
-2319.483958732914
 20
-3073.75725562523
 10
-2319.484662582865
 20
-3073.758393800597
 10
-2319.487919781906
 20
-3073.763090459383
 10
-2319.491443325909
 20
-3073.767648839075
 10
-2319.495220706018
 20
-3073.772052771616
 10
-2319.499238437865
 20
-3073.77628709715
 10
-2319.503482310283
 20
-3073.780337857084
 10
-2319.507937654502
 20
-3073.784192439937
 10
-2319.512589531746
 20
-3073.787839604638
 10
-2319.517428239464
 20
-3073.791272086717
 10
-2319.522421922725
 20
-3073.794473972986
 10
-2319.527614701197
 20
-3073.797477817258
 10
-2319.532985249153
 20
-3073.80026961813
 10
-2319.538509264831
 20
-3073.802835919977
 10
-2319.544163877624
 20
-3073.80516602513
 10
-2319.549925903032
 20
-3073.807250829179
 10
-2319.555772285123
 20
-3073.809082917211
 10
-2319.561680521527
 20
-3073.810656588401
 10
-2319.567633825734
 20
-3073.811970610198
 10
-2319.573664076599
 20
-3073.813036369393
 10
-2319.579776517195
 20
-3073.813853885861
 10
-2319.585942330504
 20
-3073.814417561755
 10
-2319.592141163722
 20
-3073.814724584567
 10
-2319.596366064105
 20
-3073.814757675942
  0
LWPOLYLINE
  5
17830
330
1F
100
AcDbEntity
  8
INDUSA
  6
Continuous
100
AcDbPolyline
 90
       12
 70
   128
 43
0.0
 10
-2319.629471381603
 20
-3073.683925331645
 10
-2319.629429596661
 20
-3073.684175144407
 10
-2319.628231901231
 20
-3073.688682998501
 10
-2319.626243815967
 20
-3073.69294479451
 10
-2319.623491016335
 20
-3073.69683532912
 10
-2319.620057376856
 20
-3073.700239680374
 10
-2319.617553476437
 20
-3073.702105078903
 10
-2319.614841268445
 20
-3073.703710704665
 10
-2319.609805007514
 20
-3073.705805772398
 10
-2319.6044301192
 20
-3073.707047968496
 10
-2319.600409025581
 20
-3073.707398666715
 10
-2319.596365729619
 20
-3073.707295531436
  0
LWPOLYLINE
  5
17831
330
1F
100
AcDbEntity
  8
INDUSA
  6
Continuous
100
AcDbPolyline
 90
        8
 70
   128
 43
0.0
 10
-2319.621265760996
 20
-3073.709192614393
 10
-2319.618383629907
 20
-3073.710667804031
 10
-2319.615163583257
 20
-3073.71198511405
 10
-2319.611798743734
 20
-3073.71304812934
 10
-2319.60830671446
 20
-3073.71384832566
 10
-2319.604706408271
 20
-3073.714377818811
 10
-2319.601020276735
 20
-3073.7146291336
 10
-2319.59905293728
 20
-3073.714611667281
  0
LWPOLYLINE
  5
17833
330
1F
100
AcDbEntity
  8
INDUSA
  6
Continuous
100
AcDbPolyline
 90
        3
 70
   128
 43
0.0
 10
-2319.63905257122
 20
-3073.692661159253
 10
-2319.638118400179
 20
-3073.694212370725
 10
-2319.637266562619
 20
-3073.695562801173
  0
LWPOLYLINE
  5
17834
330
1F
100
AcDbEntity
  8
INDUSA
  6
Continuous
100
AcDbPolyline
 90
        3
 70
   128
 43
0.0
 10
-2319.635670330006
 20
-3073.695224048628
 10
-2319.634650277854
 20
-3073.696838077828
 10
-2319.634402369071
 20
-3073.697234152789
  0
LWPOLYLINE
  5
17835
330
1F
100
AcDbEntity
  8
INDUSA
  6
Continuous
100
AcDbPolyline
 90
        5
 70
   128
 43
0.0
 10
-2319.621644096843
 20
-3073.708930549762
 10
-2319.623932244375
 20
-3073.707575736115
 10
-2319.627302402975
 20
-3073.70506318712
 10
-2319.631141825779
 20
-3073.701380915843
 10
-2319.634402369071
 20
-3073.697234152789
  0
LINE
  5
17836
330
1F
100
AcDbEntity
  8
INDUSA
  6
Continuous
100
AcDbLine
 10
-2319.637266562619
 20
-3073.695562801172
 30
0.0
 11
-2319.636134791113
 21
-3073.697260748515
 31
0.0
  0
LWPOLYLINE
  5
17837
330
1F
100
AcDbEntity
  8
INDUSA
  6
Continuous
100
AcDbPolyline
 90
        9
 70
   128
 43
0.0
 10
-2319.634402369071
 20
-3073.697234152789
 10
-2319.633703662393
 20
-3073.698347511831
 10
-2319.633097606259
 20
-3073.699375416329
 10
-2319.6330740181
 20
-3073.699420092857
 10
-2319.632876899035
 20
-3073.699967565027
 10
-2319.633167476175
 20
-3073.699962346347
 10
-2319.633921685957
 20
-3073.699425452875
 10
-2319.635026216183
 20
-3073.698424244695
 10
-2319.636134791113
 20
-3073.697260748515
  0
LWPOLYLINE
  5
17838
330
1F
100
AcDbEntity
  8
INDUSA
  6
Continuous
100
AcDbPolyline
 90
        4
 70
   128
 43
0.0
 10
-2319.636134791113
 20
-3073.697260748515
 10
-2319.632329160732
 20
-3073.701531407503
 10
-2319.627755189582
 20
-3073.70530127745
 10
-2319.624245712816
 20
-3073.70734803116
  0
LINE
  5
17839
330
1F
100
AcDbEntity
  8
INDUSA
  6
Continuous
100
AcDbLine
 10
-2319.621254238106
 20
-3073.709161385373
 30
0.0
 11
-2319.621644096843
 21
-3073.708930549762
 31
0.0
  0
LINE
  5
1783A
330
1F
100
AcDbEntity
  8
INDUSA
  6
Continuous
100
AcDbLine
 10
-2319.624300912795
 20
-3073.707442833433
 30
0.0
 11
-2319.621655380856
 21
-3073.708949660643
 31
0.0
  0
LWPOLYLINE
  5
1783B
330
1F
100
AcDbEntity
  8
INDUSA
  6
Continuous
100
AcDbPolyline
 90
        3
 70
   128
 43
0.0
 10
-2319.643026182853
 20
-3073.681312583517
 10
-2319.641852572225
 20
-3073.686235569395
 10
-2319.639946976166
 20
-3073.691048374896
  0
LWPOLYLINE
  5
1783C
330
1F
100
AcDbEntity
  8
INDUSA
  6
Continuous
100
AcDbPolyline
 90
        9
 70
   128
 43
0.0
 10
-2319.640168847279
 20
-3073.682945104426
 10
-2319.6402782428
 20
-3073.682268204624
 10
-2319.640386403968
 20
-3073.681592712664
 10
-2319.640493327742
 20
-3073.680918647534
 10
-2319.640599011117
 20
-3073.68024602818
 10
-2319.640703451121
 20
-3073.67957487351
 10
-2319.640806644819
 20
-3073.67890520239
 10
-2319.64090858931
 20
-3073.678237033643
 10
-2319.641009281728
 20
-3073.677570386052
  0
LWPOLYLINE
  5
1783F
330
1F
100
AcDbEntity
  8
INDUSA
  6
Continuous
100
AcDbPolyline
 90
        8
 70
   128
 43
0.0
 10
-2319.641333446721
 20
-3073.675375973942
 10
-2319.64177000362
 20
-3073.672289927356
 10
-2319.642178390037
 20
-3073.669241145868
 10
-2319.642558352592
 20
-3073.666231521055
 10
-2319.642909655543
 20
-3073.663262920198
 10
-2319.643232080927
 20
-3073.660337185127
 10
-2319.643525428702
 20
-3073.657456131075
 10
-2319.643751736905
 20
-3073.655044130997
  0
LWPOLYLINE
  5
17840
330
1F
100
AcDbEntity
  8
INDUSA
  6
Continuous
100
AcDbPolyline
 90
        4
 70
   128
 43
0.0
 10
-2319.644730719875
 20
-3073.670084729926
 10
-2319.644546971169
 20
-3073.671593637946
 10
-2319.644346360961
 20
-3073.672879704568
 10
-2319.644110725732
 20
-3073.674281736656
  0
LINE
  5
17841
330
1F
100
AcDbEntity
  8
INDUSA
  6
Continuous
100
AcDbLine
 10
-2319.644110725732
 20
-3073.674281736656
 30
0.0
 11
-2319.643869175304
 21
-3073.676075656731
 31
0.0
  0
LWPOLYLINE
  5
17842
330
1F
100
AcDbEntity
  8
INDUSA
  6
Continuous
100
AcDbPolyline
 90
        9
 70
   128
 43
0.0
 10
-2319.641009281728
 20
-3073.677570386052
 10
-2319.640983386211
 20
-3073.67870552754
 10
-2319.641107788163
 20
-3073.679506310777
 10
-2319.641373339802
 20
-3073.679913850906
 10
-2319.641760514032
 20
-3073.679898179841
 10
-2319.642240840356
 20
-3073.679460449938
 10
-2319.64277899842
 20
-3073.678632849263
 10
-2319.643335415269
 20
-3073.677476234666
 10
-2319.643869175304
 20
-3073.676075656731
  0
LWPOLYLINE
  5
17843
330
1F
100
AcDbEntity
  8
INDUSA
  6
Continuous
100
AcDbPolyline
 90
        9
 70
   128
 43
0.0
 10
-2319.643869175304
 20
-3073.676075656731
 10
-2319.643767583209
 20
-3073.676725919507
 10
-2319.643664905789
 20
-3073.677377455925
 10
-2319.643561145397
 20
-3073.678030251067
 10
-2319.643456304407
 20
-3073.678684289986
 10
-2319.64335038522
 20
-3073.679339557708
 10
-2319.643243390262
 20
-3073.679996039228
 10
-2319.643135321982
 20
-3073.680653719518
 10
-2319.643026182853
 20
-3073.681312583517
  0
LWPOLYLINE
  5
17844
330
1F
100
AcDbEntity
  8
INDUSA
  6
Continuous
100
AcDbPolyline
 90
        3
 70
   128
 43
0.0
 10
-2319.641009281728
 20
-3073.677570386052
 10
-2319.64105684184
 20
-3073.677454546206
 10
-2319.641066927777
 20
-3073.677387589512
  0
LINE
  5
17846
330
1F
100
AcDbEntity
  8
INDUSA
  6
Continuous
100
AcDbLine
 10
-2319.644943752376
 20
-3073.668801382832
 30
0.0
 11
-2319.644730719875
 21
-3073.670084729926
 31
0.0
  0
LWPOLYLINE
  5
17847
330
1F
100
AcDbEntity
  8
INDUSA
  6
Continuous
100
AcDbPolyline
 90
        3
 70
   128
 43
0.0
 10
-2319.641374009187
 20
-3073.675318269902
 10
-2319.64137046659
 20
-3073.675331485523
 10
-2319.641333446721
 20
-3073.675375973942
  0
LWPOLYLINE
  5
17848
330
1F
100
AcDbEntity
  8
INDUSA
  6
Continuous
100
AcDbPolyline
 90
        6
 70
   128
 43
0.0
 10
-2319.646528084943
 20
-3073.656084800081
 10
-2319.646337437105
 20
-3073.657803814372
 10
-2319.646022351448
 20
-3073.660505984206
 10
-2319.645684939308
 20
-3073.663240457534
 10
-2319.645325352392
 20
-3073.666006004888
 10
-2319.644943752376
 20
-3073.668801382832
  0
LWPOLYLINE
  5
17849
330
1F
100
AcDbEntity
  8
INDUSA
  6
Continuous
100
AcDbPolyline
 90
        9
 70
   128
 43
0.0
 10
-2319.644943752376
 20
-3073.668801382832
 10
-2319.644676149959
 20
-3073.668400225499
 10
-2319.644287301041
 20
-3073.668422500777
 10
-2319.643805799268
 20
-3073.668866570674
 10
-2319.643267051429
 20
-3073.669699780919
 10
-2319.642710673846
 20
-3073.670860862168
 10
-2319.642177579233
 20
-3073.672264435384
 10
-2319.641706968209
 20
-3073.673807290107
 10
-2319.641333446721
 20
-3073.675375973942
  0
LWPOLYLINE
  5
1784A
330
1F
100
AcDbEntity
  8
INDUSA
  6
Continuous
100
AcDbPolyline
 90
        3
 70
   128
 43
0.0
 10
-2319.641333446721
 20
-3073.675375973942
 10
-2319.641041700177
 20
-3073.677188815502
 10
-2319.641009281728
 20
-3073.677570386052
  0
LWPOLYLINE
  5
1784C
330
1F
100
AcDbEntity
  8
INDUSA
  6
Continuous
100
AcDbPolyline
 90
        3
 70
   128
 43
0.0
 10
-2319.639946976166
 20
-3073.691048374896
 10
-2319.63915784425
 20
-3073.692495956882
 10
-2319.63905257122
 20
-3073.692661159253
  0
LWPOLYLINE
  5
1784E
330
1F
100
AcDbEntity
  8
INDUSA
  6
Continuous
100
AcDbPolyline
 90
        9
 70
   128
 43
0.0
 10
-2319.639946976166
 20
-3073.691048374896
 10
-2319.640092278331
 20
-3073.690301332065
 10
-2319.639947013271
 20
-3073.689707682574
 10
-2319.639424355967
 20
-3073.689875313776
 10
-2319.638681353017
 20
-3073.690671644569
 10
-2319.637809243899
 20
-3073.691883256389
 10
-2319.636819045211
 20
-3073.693402893689
 10
-2319.635734277525
 20
-3073.695122369342
 10
-2319.635670330006
 20
-3073.695224048628
  0
LWPOLYLINE
  5
1784F
330
1F
100
AcDbEntity
  8
INDUSA
  6
Continuous
100
AcDbPolyline
 90
        4
 70
   128
 43
0.0
 10
-2319.635670330006
 20
-3073.695224048628
 10
-2319.635687421211
 20
-3073.695194880358
 10
-2319.638449912493
 20
-3073.68934589208
 10
-2319.640168847279
 20
-3073.682945104426
  0
LWPOLYLINE
  5
17852
330
1F
100
AcDbEntity
  8
INDUSA
  6
Continuous
100
AcDbPolyline
 90
        3
 70
   128
 43
0.0
 10
-2319.557061129233
 20
-3073.695224048628
 10
-2319.558081181385
 20
-3073.696838077828
 10
-2319.558329090168
 20
-3073.697234152789
  0
LWPOLYLINE
  5
17853
330
1F
100
AcDbEntity
  8
INDUSA
  6
Continuous
100
AcDbPolyline
 90
       12
 70
   128
 43
0.0
 10
-2319.563260077636
 20
-3073.683925331645
 10
-2319.563301862578
 20
-3073.684175144407
 10
-2319.564499558008
 20
-3073.688682998501
 10
-2319.566487643272
 20
-3073.69294479451
 10
-2319.569240442904
 20
-3073.69683532912
 10
-2319.572674082383
 20
-3073.700239680374
 10
-2319.575177982802
 20
-3073.702105078903
 10
-2319.577890190794
 20
-3073.703710704665
 10
-2319.582926451724
 20
-3073.705805772398
 10
-2319.588301340039
 20
-3073.707047968496
 10
-2319.592322433657
 20
-3073.707398666715
 10
-2319.596365729619
 20
-3073.707295531436
  0
LWPOLYLINE
  5
17854
330
1F
100
AcDbEntity
  8
INDUSA
  6
Continuous
100
AcDbPolyline
 90
        9
 70
   128
 43
0.0
 10
-2319.593664831041
 20
-3073.71461405254
 10
-2319.592369891576
 20
-3073.71464412093
 10
-2319.588566334497
 20
-3073.714432775029
 10
-2319.584827385902
 20
-3073.71392202101
 10
-2319.581185547345
 20
-3073.713116065081
 10
-2319.577669967443
 20
-3073.712021885626
 10
-2319.574306112091
 20
-3073.710648638335
 10
-2319.571116479246
 20
-3073.709007468853
 10
-2319.57095991761
 20
-3073.708908640502
  0
LWPOLYLINE
  5
17855
330
1F
100
AcDbEntity
  8
INDUSA
  6
Continuous
100
AcDbPolyline
 90
        3
 70
   128
 43
0.0
 10
-2319.599051814654
 20
-3073.714721610015
 10
-2319.597246442457
 20
-3073.714642117689
 10
-2319.596365729619
 20
-3073.714584250362
  0
LWPOLYLINE
  5
17856
330
1F
100
AcDbEntity
  8
INDUSA
  6
Continuous
100
AcDbPolyline
 90
        3
 70
   128
 43
0.0
 10
-2319.593667395811
 20
-3073.714722149341
 10
-2319.595485016781
 20
-3073.714642117689
 10
-2319.596365729619
 20
-3073.714584250362
  0
LWPOLYLINE
  5
17857
330
1F
100
AcDbEntity
  8
INDUSA
  6
Continuous
100
AcDbPolyline
 90
        5
 70
   128
 43
0.0
 10
-2319.570988061684
 20
-3073.708871753745
 10
-2319.568799214864
 20
-3073.707575736115
 10
-2319.565429056263
 20
-3073.70506318712
 10
-2319.561589633459
 20
-3073.701380915843
 10
-2319.558329090168
 20
-3073.697234152789
  0
LINE
  5
17858
330
1F
100
AcDbEntity
  8
INDUSA
  6
Continuous
100
AcDbLine
 10
-2319.555464896619
 20
-3073.695562801172
 30
0.0
 11
-2319.556596668125
 21
-3073.697260748515
 31
0.0
  0
LWPOLYLINE
  5
17859
330
1F
100
AcDbEntity
  8
INDUSA
  6
Continuous
100
AcDbPolyline
 90
        9
 70
   128
 43
0.0
 10
-2319.558329090168
 20
-3073.697234152789
 10
-2319.559027796846
 20
-3073.698347511831
 10
-2319.55963385298
 20
-3073.699375416329
 10
-2319.559657441138
 20
-3073.699420092857
 10
-2319.559854560203
 20
-3073.699967565027
 10
-2319.559563983064
 20
-3073.699962346347
 10
-2319.558809773281
 20
-3073.699425452875
 10
-2319.557705243055
 20
-3073.698424244695
 10
-2319.556596668125
 20
-3073.697260748515
  0
LWPOLYLINE
  5
1785A
330
1F
100
AcDbEntity
  8
INDUSA
  6
Continuous
100
AcDbPolyline
 90
        4
 70
   128
 43
0.0
 10
-2319.556596668125
 20
-3073.697260748515
 10
-2319.560402298506
 20
-3073.701531407503
 10
-2319.564976269657
 20
-3073.70530127745
 10
-2319.568470824453
 20
-3073.707339328553
  0
LWPOLYLINE
  5
1785B
330
1F
100
AcDbEntity
  8
INDUSA
  6
Continuous
100
AcDbPolyline
 90
        3
 70
   128
 43
0.0
 10
-2319.571097193522
 20
-3073.708950532305
 10
-2319.570749928689
 20
-3073.708746943189
 10
-2319.568412762552
 20
-3073.707439170588
  0
LWPOLYLINE
  5
1785E
330
1F
100
AcDbEntity
  8
INDUSA
  6
Continuous
100
AcDbPolyline
 90
        5
 70
   128
 43
0.0
 10
-2319.472657832021
 20
-3073.733037516032
 10
-2319.473689978738
 20
-3073.736403438485
 10
-2319.477381732645
 20
-3073.745358479304
 10
-2319.481927724744
 20
-3073.7540083045
 10
-2319.484101394648
 20
-3073.75736840476
  0
LWPOLYLINE
  5
17862
330
1F
100
AcDbEntity
  8
INDUSA
  6
Continuous
100
AcDbPolyline
 90
        8
 70
   128
 43
0.0
 10
-2319.551398012518
 20
-3073.675375973942
 10
-2319.550961455618
 20
-3073.672289927356
 10
-2319.550553069201
 20
-3073.669241145868
 10
-2319.550173106646
 20
-3073.666231521055
 10
-2319.549821803696
 20
-3073.663262920198
 10
-2319.549499378311
 20
-3073.660337185127
 10
-2319.549206030536
 20
-3073.657456131075
 10
-2319.548980193099
 20
-3073.655049357124
  0
LWPOLYLINE
  5
17863
330
1F
100
AcDbEntity
  8
INDUSA
  6
Continuous
100
AcDbPolyline
 90
        4
 70
   128
 43
0.0
 10
-2319.548000739364
 20
-3073.670084729926
 10
-2319.548184488069
 20
-3073.671593637946
 10
-2319.548385098278
 20
-3073.672879704568
 10
-2319.548620733506
 20
-3073.674281736656
  0
LWPOLYLINE
  5
17864
330
1F
100
AcDbEntity
  8
INDUSA
  6
Continuous
100
AcDbPolyline
 90
        3
 70
   128
 43
0.0
 10
-2319.552784483073
 20
-3073.691048374896
 10
-2319.553573614989
 20
-3073.692495956882
 10
-2319.553678888018
 20
-3073.692661159253
  0
LINE
  5
17866
330
1F
100
AcDbEntity
  8
INDUSA
  6
Continuous
100
AcDbLine
 10
-2319.548620733506
 20
-3073.674281736656
 30
0.0
 11
-2319.548862283935
 21
-3073.676075656731
 31
0.0
  0
LWPOLYLINE
  5
17867
330
1F
100
AcDbEntity
  8
INDUSA
  6
Continuous
100
AcDbPolyline
 90
        9
 70
   128
 43
0.0
 10
-2319.55172217751
 20
-3073.677570386052
 10
-2319.551748073028
 20
-3073.67870552754
 10
-2319.551623671076
 20
-3073.679506310777
 10
-2319.551358119437
 20
-3073.679913850906
 10
-2319.550970945206
 20
-3073.679898179841
 10
-2319.550490618883
 20
-3073.679460449938
 10
-2319.549952460818
 20
-3073.678632849263
 10
-2319.549396043969
 20
-3073.677476234666
 10
-2319.548862283935
 20
-3073.676075656731
  0
LWPOLYLINE
  5
17868
330
1F
100
AcDbEntity
  8
INDUSA
  6
Continuous
100
AcDbPolyline
 90
        9
 70
   128
 43
0.0
 10
-2319.548862283935
 20
-3073.676075656731
 10
-2319.54896387603
 20
-3073.676725919507
 10
-2319.549066553449
 20
-3073.677377455925
 10
-2319.549170313842
 20
-3073.678030251067
 10
-2319.549275154832
 20
-3073.678684289986
 10
-2319.549381074018
 20
-3073.679339557708
 10
-2319.549488068977
 20
-3073.679996039228
 10
-2319.549596137257
 20
-3073.680653719518
 10
-2319.549705276386
 20
-3073.681312583517
  0
LWPOLYLINE
  5
17869
330
1F
100
AcDbEntity
  8
INDUSA
  6
Continuous
100
AcDbPolyline
 90
        3
 70
   128
 43
0.0
 10
-2319.549705276386
 20
-3073.681312583517
 10
-2319.550878887014
 20
-3073.686235569395
 10
-2319.552784483073
 20
-3073.691048374896
  0
LWPOLYLINE
  5
1786B
330
1F
100
AcDbEntity
  8
INDUSA
  6
Continuous
100
AcDbPolyline
 90
        3
 70
   128
 43
0.0
 10
-2319.551357670672
 20
-3073.675319537388
 10
-2319.551360992648
 20
-3073.675331485523
 10
-2319.551398012518
 20
-3073.675375973942
  0
LINE
  5
1786D
330
1F
100
AcDbEntity
  8
INDUSA
  6
Continuous
100
AcDbLine
 10
-2319.547787706862
 20
-3073.668801382832
 30
0.0
 11
-2319.548000739364
 21
-3073.670084729926
 31
0.0
  0
LWPOLYLINE
  5
1786E
330
1F
100
AcDbEntity
  8
INDUSA
  6
Continuous
100
AcDbPolyline
 90
        9
 70
   128
 43
0.0
 10
-2319.547787706862
 20
-3073.668801382832
 10
-2319.548055309279
 20
-3073.668400225499
 10
-2319.548444158197
 20
-3073.668422500777
 10
-2319.548925659971
 20
-3073.668866570674
 10
-2319.54946440781
 20
-3073.669699780919
 10
-2319.550020785392
 20
-3073.670860862168
 10
-2319.550553880005
 20
-3073.672264435384
 10
-2319.551024491029
 20
-3073.673807290107
 10
-2319.551398012518
 20
-3073.675375973942
  0
LWPOLYLINE
  5
1786F
330
1F
100
AcDbEntity
  8
INDUSA
  6
Continuous
100
AcDbPolyline
 90
        6
 70
   128
 43
0.0
 10
-2319.546202551201
 20
-3073.656077223259
 10
-2319.546394022133
 20
-3073.657803814372
 10
-2319.546709107791
 20
-3073.660505984206
 10
-2319.54704651993
 20
-3073.663240457534
 10
-2319.547406106846
 20
-3073.666006004888
 10
-2319.547787706862
 20
-3073.668801382832
  0
LWPOLYLINE
  5
17870
330
1F
100
AcDbEntity
  8
INDUSA
  6
Continuous
100
AcDbPolyline
 90
        9
 70
   128
 43
0.0
 10
-2319.552562611959
 20
-3073.682945104426
 10
-2319.552453216438
 20
-3073.682268204624
 10
-2319.55234505527
 20
-3073.681592712664
 10
-2319.552238131496
 20
-3073.680918647534
 10
-2319.552132448122
 20
-3073.68024602818
 10
-2319.552028008118
 20
-3073.67957487351
 10
-2319.55192481442
 20
-3073.67890520239
 10
-2319.551822869929
 20
-3073.678237033643
 10
-2319.55172217751
 20
-3073.677570386052
  0
LWPOLYLINE
  5
17871
330
1F
100
AcDbEntity
  8
INDUSA
  6
Continuous
100
AcDbPolyline
 90
        3
 70
   128
 43
0.0
 10
-2319.551398012518
 20
-3073.675375973942
 10
-2319.551689759062
 20
-3073.677188815502
 10
-2319.55172217751
 20
-3073.677570386052
  0
LINE
  5
17884
330
1F
100
AcDbEntity
  8
INDUSA
  6
Continuous
100
AcDbLine
 10
-2319.068689413754
 20
-3074.064629996783
 30
0.0
 11
-2318.75448704563
 21
-3073.849176944356
 31
0.0
  0
LINE
  5
17885
330
1F
100
AcDbEntity
  8
INDUSA
  6
Continuous
100
AcDbLine
 10
-2319.07025494211
 20
-3074.063805267931
 30
0.0
 11
-2319.07025494211
 21
-3073.641848403901
 31
0.0
  0
LINE
  5
17886
330
1F
100
AcDbEntity
  8
INDUSA
  6
Continuous
100
AcDbLine
 10
-2319.068689413754
 20
-3074.064629996783
 30
0.0
 11
-2318.75448704563
 21
-3073.849176944356
 31
0.0
  0
ARC
  5
17887
330
1F
100
AcDbEntity
  8
INDUSA
  6
Continuous
100
AcDbCircle
 10
-2319.06925494211
 20
-3074.063805267931
 30
0.0
 40
0.0010000000000001
100
AcDbArc
 50
179.9999999999998
 51
304.438989308806
  0
ARC
  5
17888
330
1F
100
AcDbEntity
  8
INDUSA
  6
Continuous
100
AcDbCircle
 10
-2319.06925494211
 20
-3074.063805267931
 30
0.0
 40
0.0010000000000001
100
AcDbArc
 50
179.9999999999998
 51
304.438989308806
  0
LINE
  5
17889
330
1F
100
AcDbEntity
  8
INDUSA
  6
Continuous
100
AcDbLine
 10
-2318.945470684036
 20
-3073.561817848691
 30
0.0
 11
-2318.753191043149
 21
-3073.842225658319
 31
0.0
  0
LINE
  5
1788C
330
1F
100
AcDbEntity
  8
INDUSA
  6
Continuous
100
AcDbLine
 10
-2318.952421970073
 20
-3073.560521846209
 30
0.0
 11
-2319.069820470465
 21
-3073.64102367505
 31
0.0
  0
LINE
  5
1788D
330
1F
100
AcDbEntity
  8
INDUSA
  6
Continuous
100
AcDbLine
 10
-2318.952421970073
 20
-3073.560521846209
 30
0.0
 11
-2319.069820470465
 21
-3073.64102367505
 31
0.0
  0
LINE
  5
1788E
330
1F
100
AcDbEntity
  8
INDUSA
  6
Continuous
100
AcDbLine
 10
-2319.428865729619
 20
-3073.851562558357
 30
0.0
 11
-2319.428865729619
 21
-3073.703585413518
 31
0.0
  0
LWPOLYLINE
  5
1788F
330
1F
100
AcDbEntity
  8
INDUSA
  6
Continuous
100
AcDbPolyline
 90
        5
 70
   128
 43
0.0
 10
-2319.429877058619
 20
-3073.719006267604
 10
-2319.429169043089
 20
-3073.712263861124
 10
-2319.428865729619
 20
-3073.703585413519
 10
-2319.42951421023
 20
-3073.690897664665
 10
-2319.429882226536
 20
-3073.688170849477
  0
ARC
  5
17890
330
1F
100
AcDbEntity
  8
INDUSA
  6
Continuous
100
AcDbCircle
 10
-2319.06925494211
 20
-3073.641848403901
 30
0.0
 40
0.001
100
AcDbArc
 50
124.4389893088059
 51
179.9999999999998
  0
ARC
  5
17891
330
1F
100
AcDbEntity
  8
INDUSA
  6
Continuous
100
AcDbCircle
 10
-2319.06925494211
 20
-3073.641848403901
 30
0.0
 40
0.001
100
AcDbArc
 50
124.4389893088059
 51
179.9999999999998
  0
ARC
  5
17892
330
1F
100
AcDbEntity
  8
INDUSA
  6
Continuous
100
AcDbCircle
 10
-2318.949594328296
 20
-3073.564645490469
 30
0.0
 40
0.0050000000000001
100
AcDbArc
 50
34.43898930880596
 51
124.4389893088059
  0
ARC
  5
17893
330
1F
100
AcDbEntity
  8
INDUSA
  6
Continuous
100
AcDbCircle
 10
-2318.949594328296
 20
-3073.564645490469
 30
0.0
 40
0.0050000000000001
100
AcDbArc
 50
34.43898930880596
 51
124.4389893088059
  0
ARC
  5
17895
330
1F
100
AcDbEntity
  8
INDUSA
  6
Continuous
100
AcDbCircle
 10
-2318.757314687408
 20
-3073.845053300096
 30
0.0
 40
0.0050000000000001
100
AcDbArc
 50
304.438989308806
 51
34.43898930880596
  0
ARC
  5
17896
330
1F
100
AcDbEntity
  8
INDUSA
  6
Continuous
100
AcDbCircle
 10
-2318.757314687408
 20
-3073.845053300096
 30
0.0
 40
0.0050000000000001
100
AcDbArc
 50
304.438989308806
 51
34.43898930880596
  0
ARC
  5
17BD1
330
1F
100
AcDbEntity
  8
INDUSA
100
AcDbCircle
 10
-2318.386019978379
 20
-3073.705414341953
 30
0.0
 40
0.0103806229575863
100
AcDbArc
 50
267.1619088409155
 51
279.5287786374933
  0
LINE
  5
17BD2
330
1F
100
AcDbEntity
  8
INDUSA
100
AcDbLine
 10
-2318.387353420522
 20
-3073.714192655965
 30
0.0
 11
-2318.387406628187
 21
-3073.714646206829
 31
0.0
  0
LINE
  5
17BD3
330
1F
100
AcDbEntity
  8
INDUSA
100
AcDbLine
 10
-2318.397320286809
 20
-3073.713024618936
 30
0.0
 11
-2318.397441229805
 21
-3073.714019907469
 31
0.0
  0
LINE
  5
17BEA
330
1F
100
AcDbEntity
  8
INDUSA
  6
Continuous
100
AcDbLine
 10
-2318.406414101958
 20
-3073.688265065073
 30
0.0
 11
-2318.406414101959
 21
-3073.698794809788
 31
0.0
  0
LINE
  5
17BF4
330
1F
100
AcDbEntity
  8
INDUSA
  6
Continuous
100
AcDbLine
 10
-2318.401414101959
 20
-3073.653624048921
 30
0.0
 11
-2318.401414101959
 21
-3073.648655265636
 31
0.0
  0
LINE
  5
17BF6
330
1F
100
AcDbEntity
  8
INDUSA
100
AcDbLine
 10
-2318.406414101959
 20
-3073.653624048922
 30
0.0
 11
-2318.401414101959
 21
-3073.653624048921
 31
0.0
  0
LINE
  5
17BF7
330
1F
100
AcDbEntity
  8
INDUSA
100
AcDbLine
 10
-2318.406414101959
 20
-3073.652541382957
 30
0.0
 11
-2318.407465912182
 21
-3073.652541382957
 31
0.0
  0
LINE
  5
17BF8
330
1F
100
AcDbEntity
  8
INDUSA
100
AcDbLine
 10
-2318.401414101959
 20
-3073.688265065073
 30
0.0
 11
-2318.406414101958
 21
-3073.688265065073
 31
0.0
  0
LINE
  5
17BF9
330
1F
100
AcDbEntity
  8
INDUSA
  6
Continuous
100
AcDbLine
 10
-2318.406414101959
 20
-3073.652541382957
 30
0.0
 11
-2318.406414101959
 21
-3073.653624048922
 31
0.0
  0
LWPOLYLINE
  5
17BFA
330
1F
100
AcDbEntity
  8
INDUSA
  6
Continuous
100
AcDbPolyline
 90
        6
 70
   128
 43
0.0
 10
-2318.092648111325
 20
-3073.849178276869
 10
-2318.091442579437
 20
-3073.848009874423
 10
-2318.090691751507
 20
-3073.846508299578
 10
-2318.090480267846
 20
-3073.844842827629
 10
-2318.090831981733
 20
-3073.843201202575
 10
-2318.091352170196
 20
-3073.842226901359
  0
LWPOLYLINE
  5
17BFB
330
1F
100
AcDbEntity
  8
INDUSA
  6
Continuous
100
AcDbPolyline
 90
        5
 70
   128
 43
0.0
 10
-2318.107805867481
 20
-3073.81823192615
 10
-2318.108974357712
 20
-3073.817026299581
 10
-2318.110476049567
 20
-3073.816275414027
 10
-2318.112141614359
 20
-3073.816063941999
 10
-2318.113675657891
 20
-3073.816374203531
  0
LINE
  5
17BFC
330
1F
100
AcDbEntity
  8
INDUSA
  6
Continuous
100
AcDbLine
 10
-2318.140142440958
 20
-3073.836909544395
 30
0.0
 11
-2318.113843887143
 21
-3073.827109060122
 31
0.0
  0
LINE
  5
17BFD
330
1F
100
AcDbEntity
  8
INDUSA
  6
Continuous
100
AcDbLine
 10
-2318.129930048373
 20
-3073.848355009299
 30
0.0
 11
-2318.140142440958
 21
-3073.836909544395
 31
0.0
  0
LINE
  5
17BFE
330
1F
100
AcDbEntity
  8
INDUSA
  6
Continuous
100
AcDbLine
 10
-2318.102427165926
 20
-3073.84375844523
 30
0.0
 11
-2318.113843887143
 21
-3073.827109060122
 31
0.0
  0
LINE
  5
17BFF
330
1F
100
AcDbEntity
  8
INDUSA
  6
Continuous
100
AcDbLine
 10
-2318.091352170196
 20
-3073.842226901359
 30
0.0
 11
-2318.107805867481
 21
-3073.818231926151
 31
0.0
  0
LWPOLYLINE
  5
17C00
330
1F
100
AcDbEntity
  8
INDUSA
  6
Continuous
100
AcDbPolyline
 90
        7
 70
   128
 43
0.0
 10
-2318.150490612699
 20
-3073.83009369552
 10
-2318.151942968743
 20
-3073.830935707513
 10
-2318.153034742369
 20
-3073.832210993398
 10
-2318.15364284932
 20
-3073.833775767663
 10
-2318.153698749474
 20
-3073.835453664131
 10
-2318.153196107436
 20
-3073.837055556622
 10
-2318.152475181985
 20
-3073.838107915093
  0
LINE
  5
17C01
330
1F
100
AcDbEntity
  8
INDUSA
  6
Continuous
100
AcDbLine
 10
-2318.152475181984
 20
-3073.838107915093
 30
0.0
 11
-2318.143845042301
 21
-3073.847780081537
 31
0.0
  0
LINE
  5
17C02
330
1F
100
AcDbEntity
  8
INDUSA
  6
Continuous
100
AcDbLine
 10
-2318.150490612698
 20
-3073.83009369552
 30
0.0
 11
-2318.113675657891
 21
-3073.816374203531
 31
0.0
  0
LINE
  5
17C03
330
1F
100
AcDbEntity
  8
INDUSA
  6
Continuous
100
AcDbLine
 10
-2318.282152707267
 20
-3073.910806706529
 30
0.0
 11
-2318.267947972132
 21
-3073.895092655511
 31
0.0
  0
LWPOLYLINE
  5
17C04
330
1F
100
AcDbEntity
  8
INDUSA
  6
Continuous
100
AcDbPolyline
 90
        6
 70
   128
 43
0.0
 10
-2318.276560354388
 20
-3073.892654825686
 10
-2318.276565311034
 20
-3073.892987002596
 10
-2318.276460322819
 20
-3073.893302082025
 10
-2318.276256317753
 20
-3073.893567738698
 10
-2318.275972512671
 20
-3073.893754971435
 10
-2318.275746462014
 20
-3073.893825134257
  0
LWPOLYLINE
  5
17C05
330
1F
100
AcDbEntity
  8
INDUSA
  6
Continuous
100
AcDbPolyline
 90
        6
 70
   128
 43
0.0
 10
-2318.273913570789
 20
-3073.883994317542
 10
-2318.274257458647
 20
-3073.88398844851
 10
-2318.274583904062
 20
-3073.884096925475
 10
-2318.274853822891
 20
-3073.8843071009
 10
-2318.275034880922
 20
-3073.884591653862
 10
-2318.275094050071
 20
-3073.884790102532
  0
LINE
  5
17C06
330
1F
100
AcDbEntity
  8
INDUSA
  6
Continuous
100
AcDbLine
 10
-2318.276560354388
 20
-3073.892654825686
 30
0.0
 11
-2318.275094050071
 21
-3073.884790102532
 31
0.0
  0
ARC
  5
17C07
330
1F
100
AcDbEntity
  8
INDUSA
  6
Continuous
100
AcDbCircle
 10
-2318.245705511001
 20
-3073.73362070018
 30
0.0
 40
0.1629966853520057
100
AcDbArc
 50
259.3794396589028
 51
262.1569705238
  0
LWPOLYLINE
  5
17C08
330
1F
100
AcDbEntity
  8
INDUSA
  6
Continuous
100
AcDbPolyline
 90
        6
 70
   128
 43
0.0
 10
-2318.289428061
 20
-3073.881169088647
 10
-2318.289423118704
 20
-3073.880836675864
 10
-2318.289528178389
 20
-3073.880521378968
 10
-2318.289732386149
 20
-3073.880255406192
 10
-2318.290016512335
 20
-3073.880067952505
 10
-2318.290133663346
 20
-3073.880024452574
  0
LWPOLYLINE
  5
17C09
330
1F
100
AcDbEntity
  8
INDUSA
  6
Continuous
100
AcDbPolyline
 90
        6
 70
   128
 43
0.0
 10
-2318.292186069819
 20
-3073.889849625438
 10
-2318.291844316841
 20
-3073.88989105776
 10
-2318.291508103027
 20
-3073.889816919989
 10
-2318.291217023849
 20
-3073.889635544844
 10
-2318.291006462215
 20
-3073.889370409686
 10
-2318.290902853535
 20
-3073.88907933952
  0
LINE
  5
17C0C
330
1F
100
AcDbEntity
  8
INDUSA
  6
Continuous
100
AcDbLine
 10
-2318.289428060999
 20
-3073.881169088647
 30
0.0
 11
-2318.290902853535
 21
-3073.88907933952
 31
0.0
  0
ARC
  5
17C0D
330
1F
100
AcDbEntity
  8
INDUSA
  6
Continuous
100
AcDbCircle
 10
-2318.3189163598
 20
-3073.871511162973
 30
0.0
 40
0.0538117634997108
100
AcDbArc
 50
265.2054601390879
 51
313.0934176381218
  0
ARC
  5
17C0E
330
1F
100
AcDbEntity
  8
INDUSA
  6
Continuous
100
AcDbCircle
 10
-2318.245705511001
 20
-3073.73362070018
 30
0.0
 40
0.1629966853520056
100
AcDbArc
 50
240.5885811098127
 51
253.4314317027361
  0
ARC
  5
17C0F
330
1F
100
AcDbEntity
  8
INDUSA
  6
Continuous
100
AcDbCircle
 10
-2318.3189163598
 20
-3073.871511162973
 30
0.0
 40
0.0618328801577323
100
AcDbArc
 50
265.8286037853981
 51
313.7165612843734
  0
LINE
  5
17C10
330
1F
100
AcDbEntity
  8
INDUSA
  6
Continuous
100
AcDbLine
 10
-2318.258057050723
 20
-3073.896148725154
 30
0.0
 11
-2318.276184190862
 21
-3073.916201954043
 31
0.0
  0
LWPOLYLINE
  5
17C11
330
1F
100
AcDbEntity
  8
INDUSA
  6
Continuous
100
AcDbPolyline
 90
        5
 70
   128
 43
0.0
 10
-2318.378414101958
 20
-3073.920132683215
 10
-2318.378357635845
 20
-3073.920464334847
 10
-2318.37819455494
 20
-3073.920758597222
 10
-2318.377943341262
 20
-3073.920982095719
 10
-2318.377735208091
 20
-3073.921080770946
  0
LWPOLYLINE
  5
17C12
330
1F
100
AcDbEntity
  8
INDUSA
  6
Continuous
100
AcDbPolyline
 90
        6
 70
   128
 43
0.0
 10
-2318.377279559884
 20
-3073.913493862587
 10
-2318.377614429825
 20
-3073.913505068509
 10
-2318.377926713684
 20
-3073.913626466339
 10
-2318.378181500444
 20
-3073.913844424601
 10
-2318.378350349012
 20
-3073.914134907994
 10
-2318.378414101958
 20
-3073.914487012751
  0
LINE
  5
17C13
330
1F
100
AcDbEntity
  8
INDUSA
  6
Continuous
100
AcDbLine
 10
-2318.378414101958
 20
-3073.914487012751
 30
0.0
 11
-2318.378414101958
 21
-3073.920132683215
 31
0.0
  0
LWPOLYLINE
  5
17C14
330
1F
100
AcDbEntity
  8
INDUSA
  6
Continuous
100
AcDbPolyline
 90
        6
 70
   128
 43
0.0
 10
-2318.4064051937
 20
-3073.957574859425
 10
-2318.406411397663
 20
-3073.957691228063
 10
-2318.406241156723
 20
-3073.95857607097
 10
-2318.40581476271
 20
-3073.95934125979
 10
-2318.405126832678
 20
-3073.95996004122
 10
-2318.404387775566
 20
-3073.960291627958
  0
LWPOLYLINE
  5
17C15
330
1F
100
AcDbEntity
  8
INDUSA
  6
Continuous
100
AcDbPolyline
 90
        6
 70
   128
 43
0.0
 10
-2318.404411772841
 20
-3073.960320458876
 10
-2318.404258283381
 20
-3073.960356462736
 10
-2318.403787596342
 20
-3073.960651943805
 10
-2318.403511646631
 20
-3073.961056122081
 10
-2318.403414103758
 20
-3073.961599732394
 10
-2318.403414302622
 20
-3073.961602404324
  0
LWPOLYLINE
  5
17C16
330
1F
100
AcDbEntity
  8
INDUSA
  6
Continuous
100
AcDbPolyline
 90
        9
 70
   128
 43
0.0
 10
-2318.405850569732
 20
-3073.947386964455
 10
-2318.405971758501
 20
-3073.947429073803
 10
-2318.406082052014
 20
-3073.94748098833
 10
-2318.406179295402
 20
-3073.947541693755
 10
-2318.406261588765
 20
-3073.947610004039
 10
-2318.406327324291
 20
-3073.947684584564
 10
-2318.406375217666
 20
-3073.947763978209
 10
-2318.406404333171
 20
-3073.947846633813
 10
-2318.406414101958
 20
-3073.947930936488
  0
LINE
  5
17C18
330
1F
100
AcDbEntity
  8
INDUSA
  6
Continuous
100
AcDbLine
 10
-2318.406414101959
 20
-3073.94965728896
 30
0.0
 11
-2318.406414101958
 21
-3073.947930936488
 31
0.0
  0
LINE
  5
17C19
330
1F
100
AcDbEntity
  8
INDUSA
  6
Continuous
100
AcDbLine
 10
-2318.406414101959
 20
-3073.94965728896
 30
0.0
 11
-2318.406414101959
 21
-3073.957559521392
 31
0.0
  0
LINE
  5
17C1A
330
1F
100
AcDbEntity
  8
INDUSA
  6
Continuous
100
AcDbLine
 10
-2318.403414101958
 20
-3073.961602263195
 30
0.0
 11
-2318.403414101958
 21
-3073.962169149988
 31
0.0
  0
LINE
  5
17C1B
330
1F
100
AcDbEntity
  8
INDUSA
  6
Continuous
100
AcDbLine
 10
-2318.370964239474
 20
-3073.923495367722
 30
0.0
 11
-2318.405850569732
 21
-3073.947386964455
 31
0.0
  0
LWPOLYLINE
  5
17C1D
330
1F
100
AcDbEntity
  8
INDUSA
  6
Continuous
100
AcDbPolyline
 90
        7
 70
   128
 43
0.0
 10
-2318.377735208091
 20
-3073.921080770946
 10
-2318.367376365607
 20
-3073.924774840301
 10
-2318.356959231536
 20
-3073.928297170859
 10
-2318.348819865925
 20
-3073.930341975264
 10
-2318.34043235218
 20
-3073.931558633813
 10
-2318.331918545685
 20
-3073.932324965789
 10
-2318.323414101959
 20
-3073.933180242617
  0
LWPOLYLINE
  5
17C1F
330
1F
100
AcDbEntity
  8
INDUSA
  6
Continuous
100
AcDbPolyline
 90
        8
 70
   128
 43
0.0
 10
-2318.408414101959
 20
-3074.063805267931
 10
-2318.408357728052
 20
-3074.064136291552
 10
-2318.408194960861
 20
-3074.064429994819
 10
-2318.407944153513
 20
-3074.064653259716
 10
-2318.407633590432
 20
-3074.06478091333
 10
-2318.407298289145
 20
-3074.064798569838
 10
-2318.406976049254
 20
-3074.064704245163
 10
-2318.406848585491
 20
-3074.064630030583
  0
LINE
  5
17C20
330
1F
100
AcDbEntity
  8
INDUSA
  6
Continuous
100
AcDbLine
 10
-2318.408414101959
 20
-3074.063805267931
 30
0.0
 11
-2318.408414101959
 21
-3074.053578058509
 31
0.0
  0
LWPOLYLINE
  5
17C21
330
1F
100
AcDbEntity
  8
INDUSA
  6
Continuous
100
AcDbPolyline
 90
        6
 70
   128
 43
0.0
 10
-2318.406405404235
 20
-3073.968912769329
 10
-2318.406411548426
 20
-3073.969025151088
 10
-2318.406241941928
 20
-3073.969909253757
 10
-2318.405754033823
 20
-3073.970749241317
 10
-2318.405045113258
 20
-3073.971344896666
 10
-2318.404385484678
 20
-3073.971619086458
  0
LWPOLYLINE
  5
17C22
330
1F
100
AcDbEntity
  8
INDUSA
  6
Continuous
100
AcDbPolyline
 90
        6
 70
   128
 43
0.0
 10
-2318.404413723119
 20
-3073.971654783612
 10
-2318.404262670682
 20
-3073.97169040881
 10
-2318.403787849371
 20
-3073.971988385427
 10
-2318.403510841463
 20
-3073.972393498927
 10
-2318.403414102039
 20
-3073.972933653863
 10
-2318.403414144716
 20
-3073.972934216827
  0
LWPOLYLINE
  5
17C23
330
1F
100
AcDbEntity
  8
INDUSA
  6
Continuous
100
AcDbPolyline
 90
        3
 70
   128
 43
0.0
 10
-2318.406366055631
 20
-3073.968971279454
 10
-2318.406413522374
 20
-3073.969576955167
 10
-2318.406407098861
 20
-3073.969675011726
  0
LINE
  5
17C24
330
1F
100
AcDbEntity
  8
INDUSA
  6
Continuous
100
AcDbLine
 10
-2318.406414101959
 20
-3073.988640632026
 30
0.0
 11
-2318.408414101959
 21
-3073.989276847244
 31
0.0
  0
LINE
  5
17C25
330
1F
100
AcDbEntity
  8
INDUSA
  6
Continuous
100
AcDbLine
 10
-2318.406414101959
 20
-3073.988640632026
 30
0.0
 11
-2318.406414101958
 21
-3073.988488415553
 31
0.0
  0
LWPOLYLINE
  5
17C26
330
1F
100
AcDbEntity
  8
INDUSA
  6
Continuous
100
AcDbPolyline
 90
        5
 70
   128
 43
0.0
 10
-2318.406414101959
 20
-3073.988488415553
 10
-2318.406013773566
 20
-3073.988569055652
 10
-2318.405126331465
 20
-3073.988538573894
 10
-2318.404135753032
 20
-3073.988233014428
 10
-2318.403545386889
 20
-3073.987917035228
  0
LWPOLYLINE
  5
17C27
330
1F
100
AcDbEntity
  8
INDUSA
  6
Continuous
100
AcDbPolyline
 90
        4
 70
   128
 43
0.0
 10
-2318.403414101959
 20
-3073.973498564544
 10
-2318.40344087407
 20
-3073.973880866352
 10
-2318.403874208097
 20
-3073.975187365477
 10
-2318.404747435292
 20
-3073.976450767877
  0
LWPOLYLINE
  5
17C29
330
1F
100
AcDbEntity
  8
INDUSA
  6
Continuous
100
AcDbPolyline
 90
        4
 70
   128
 43
0.0
 10
-2318.404747435292
 20
-3073.976450767877
 10
-2318.405840562366
 20
-3073.977745651501
 10
-2318.406381897135
 20
-3073.979147333608
 10
-2318.406414101959
 20
-3073.979560799518
  0
LINE
  5
17C2A
330
1F
100
AcDbEntity
  8
INDUSA
  6
Continuous
100
AcDbLine
 10
-2318.406414101959
 20
-3073.969676722115
 30
0.0
 11
-2318.406414101959
 21
-3073.979560799518
 31
0.0
  0
LINE
  5
17C2B
330
1F
100
AcDbEntity
  8
INDUSA
  6
Continuous
100
AcDbLine
 10
-2318.406414101959
 20
-3073.969676722115
 30
0.0
 11
-2318.406365390599
 21
-3073.969265756604
 31
0.0
  0
LINE
  5
17C2C
330
1F
100
AcDbEntity
  8
INDUSA
  6
Continuous
100
AcDbLine
 10
-2318.406414101959
 20
-3073.968267884818
 30
0.0
 11
-2318.406414101959
 21
-3073.968897572326
 31
0.0
  0
LINE
  5
17C2D
330
1F
100
AcDbEntity
  8
INDUSA
  6
Continuous
100
AcDbLine
 10
-2318.403414101958
 20
-3073.972934186586
 30
0.0
 11
-2318.403414101958
 21
-3073.973498564544
 31
0.0
  0
LINE
  5
17C2F
330
1F
100
AcDbEntity
  8
INDUSA
  6
Continuous
100
AcDbLine
 10
-2318.406414101959
 20
-3073.979560799518
 30
0.0
 11
-2318.406414101959
 21
-3073.9857512666
 31
0.0
  0
LINE
  5
17C30
330
1F
100
AcDbEntity
  8
INDUSA
  6
Continuous
100
AcDbLine
 10
-2318.406414101959
 20
-3073.9857512666
 30
0.0
 11
-2318.406414101958
 21
-3073.988488415553
 31
0.0
  0
LINE
  5
17C31
330
1F
100
AcDbEntity
  8
INDUSA
  6
Continuous
100
AcDbLine
 10
-2318.406414101959
 20
-3073.968897572326
 30
0.0
 11
-2318.406414101959
 21
-3073.969676722115
 31
0.0
  0
LWPOLYLINE
  5
17C32
330
1F
100
AcDbEntity
  8
INDUSA
  6
Continuous
100
AcDbPolyline
 90
        4
 70
   128
 43
0.0
 10
-2318.404747435292
 20
-3073.965152728836
 10
-2318.405847030899
 20
-3073.966462013509
 10
-2318.406385165776
 20
-3073.967876434967
 10
-2318.406414101959
 20
-3073.968267884818
  0
LINE
  5
17C33
330
1F
100
AcDbEntity
  8
INDUSA
  6
Continuous
100
AcDbLine
 10
-2318.408414101959
 20
-3074.053578058509
 30
0.0
 11
-2318.408414101959
 21
-3073.989276847244
 31
0.0
  0
LWPOLYLINE
  5
17C34
330
1F
100
AcDbEntity
  8
INDUSA
  6
Continuous
100
AcDbPolyline
 90
        5
 70
   128
 43
0.0
 10
-2318.403545386889
 20
-3073.987917035228
 10
-2318.400162327961
 20
-3073.985787569628
 10
-2318.386631158873
 20
-3073.977268148734
 10
-2318.332523578799
 20
-3073.943165506767
 10
-2318.316772856769
 20
-3073.933212063272
  0
LWPOLYLINE
  5
17C36
330
1F
100
AcDbEntity
  8
INDUSA
  6
Continuous
100
AcDbPolyline
 90
        4
 70
   128
 43
0.0
 10
-2318.403414101958
 20
-3073.962169149988
 10
-2318.403438401859
 20
-3073.96253654495
 10
-2318.403869282885
 20
-3073.963865696712
 10
-2318.404747435292
 20
-3073.965152728836
  0
LINE
  5
17C38
330
1F
100
AcDbEntity
  8
INDUSA
  6
Continuous
100
AcDbLine
 10
-2318.406414101958
 20
-3073.957685159815
 30
0.0
 11
-2318.406414101959
 21
-3073.968267884818
 31
0.0
  0
LINE
  5
17C39
330
1F
100
AcDbEntity
  8
INDUSA
  6
Continuous
100
AcDbLine
 10
-2318.408414101959
 20
-3074.053578058509
 30
0.0
 11
-2318.102427165926
 21
-3073.84375844523
 31
0.0
  0
ARC
  5
17C3A
330
1F
100
AcDbEntity
  8
INDUSA
  6
Continuous
100
AcDbCircle
 10
-2318.245705511001
 20
-3073.73362070018
 30
0.0
 40
0.152996468703499
100
AcDbArc
 50
259.3755573229875
 51
311.7414297215426
  0
ARC
  5
17C3B
330
1F
100
AcDbEntity
  8
INDUSA
  6
Continuous
100
AcDbCircle
 10
-2318.245705511001
 20
-3073.73362070018
 30
0.0
 40
0.1629966853520057
100
AcDbArc
 50
265.6540825044255
 51
315.2587885785474
  0
LINE
  5
17C3C
330
1F
100
AcDbEntity
  8
INDUSA
  6
Continuous
100
AcDbLine
 10
-2318.406848585491
 20
-3074.064630030583
 30
0.0
 11
-2318.092648111324
 21
-3073.849178276868
 31
0.0
  0
LINE
  5
17C3D
330
1F
100
AcDbEntity
  8
INDUSA
  6
Continuous
100
AcDbLine
 10
-2318.277630761894
 20
-3073.58825320111
 30
0.0
 11
-2318.289047457994
 21
-3073.571603852631
 31
0.0
  0
LWPOLYLINE
  5
17C3E
330
1F
100
AcDbEntity
  8
INDUSA
  6
Continuous
100
AcDbPolyline
 90
        5
 70
   128
 43
0.0
 10
-2318.26755650683
 20
-3073.591964631953
 10
-2318.266669454629
 20
-3073.590539272894
 10
-2318.266304204626
 20
-3073.588900646249
 10
-2318.266501926641
 20
-3073.587233449575
 10
-2318.267174206099
 20
-3073.585819765667
  0
LWPOLYLINE
  5
17C3F
330
1F
100
AcDbEntity
  8
INDUSA
  6
Continuous
100
AcDbPolyline
 90
        6
 70
   128
 43
0.0
 10
-2318.323404980924
 20
-3073.646539582928
 10
-2318.32209270401
 20
-3073.647586924741
 10
-2318.3205077239
 20
-3073.64814085341
 10
-2318.318828767665
 20
-3073.648138901764
 10
-2318.317245177397
 20
-3073.647581316021
 10
-2318.315932779154
 20
-3073.646527961832
  0
LWPOLYLINE
  5
17C40
330
1F
100
AcDbEntity
  8
INDUSA
  6
Continuous
100
AcDbPolyline
 90
        3
 70
   128
 43
0.0
 10
-2318.26755650683
 20
-3073.591964631953
 10
-2318.283682103242
 20
-3073.610152566482
 10
-2318.315932779154
 20
-3073.646527961832
  0
LWPOLYLINE
  5
17C41
330
1F
100
AcDbEntity
  8
INDUSA
  6
Continuous
100
AcDbPolyline
 90
        3
 70
   128
 43
0.0
 10
-2318.277630761895
 20
-3073.588253201111
 10
-2318.293828656839
 20
-3073.606522637561
 10
-2318.31968621282
 20
-3073.635687164566
  0
LINE
  5
17C42
330
1F
100
AcDbEntity
  8
INDUSA
  6
Continuous
100
AcDbLine
 10
-2318.351845339654
 20
-3073.614665257199
 30
0.0
 11
-2318.340908114653
 21
-3073.626923072775
 31
0.0
  0
ARC
  5
17C50
330
1F
100
AcDbEntity
  8
INDUSA
  6
Continuous
100
AcDbCircle
 10
-2318.245705511001
 20
-3073.73362070018
 30
0.0
 40
0.1329959376663085
100
AcDbArc
 50
131.7414297215425
 51
168.7730745421992
  0
LINE
  5
17C51
330
1F
100
AcDbEntity
  8
INDUSA
  6
Continuous
100
AcDbLine
 10
-2318.289047457994
 20
-3073.571603852631
 30
0.0
 11
-2318.343530610615
 21
-3073.608963728715
 31
0.0
  0
LINE
  5
17C52
330
1F
100
AcDbEntity
  8
INDUSA
  6
Continuous
100
AcDbLine
 10
-2318.33425022488
 20
-3073.634384854439
 30
0.0
 11
-2318.323404980924
 21
-3073.646539582928
 31
0.0
  0
LWPOLYLINE
  5
17C53
330
1F
100
AcDbEntity
  8
INDUSA
  6
Continuous
100
AcDbPolyline
 90
        6
 70
   128
 43
0.0
 10
-2318.283627876688
 20
-3073.561824829392
 10
-2318.284796340321
 20
-3073.560619230677
 10
-2318.286297997497
 20
-3073.559868362269
 10
-2318.287963529588
 20
-3073.559656889509
 10
-2318.28960513578
 20
-3073.56000864242
 10
-2318.290579224078
 20
-3073.560528737437
  0
LWPOLYLINE
  5
17C54
330
1F
100
AcDbEntity
  8
INDUSA
  6
Continuous
100
AcDbPolyline
 90
        4
 70
   128
 43
0.0
 10
-2318.407979618427
 20
-3073.641031864991
 10
-2318.408220733558
 20
-3073.641265554694
 10
-2318.408370904748
 20
-3073.641565880844
 10
-2318.408414101959
 20
-3073.641856627643
  0
LINE
  5
17C55
330
1F
100
AcDbEntity
  8
INDUSA
  6
Continuous
100
AcDbLine
 10
-2318.408414101959
 20
-3073.651556879418
 30
0.0
 11
-2318.408414101959
 21
-3073.641856627643
 31
0.0
  0
LINE
  5
17C56
330
1F
100
AcDbEntity
  8
INDUSA
  6
Continuous
100
AcDbLine
 10
-2318.290579224077
 20
-3073.560528737437
 30
0.0
 11
-2318.407979618426
 21
-3073.641031864991
 31
0.0
  0
LWPOLYLINE
  5
17C57
330
1F
100
AcDbEntity
  8
INDUSA
  6
Continuous
100
AcDbPolyline
 90
        6
 70
   128
 43
0.0
 10
-2318.408414101959
 20
-3073.651556883671
 10
-2318.408357723198
 20
-3073.651887934035
 10
-2318.408194940621
 20
-3073.652181658032
 10
-2318.407944119615
 20
-3073.652404923351
 10
-2318.407633555822
 20
-3073.652532562799
 10
-2318.407465912182
 20
-3073.652541382957
  0
LINE
  5
17C58
330
1F
100
AcDbEntity
  8
INDUSA
  6
Continuous
100
AcDbLine
 10
-2318.319686212819
 20
-3073.635687164566
 30
0.0
 11
-2318.343530610615
 21
-3073.608963728715
 31
0.0
  0
LINE
  5
17C59
330
1F
100
AcDbEntity
  8
INDUSA
  6
Continuous
100
AcDbLine
 10
-2318.267174206099
 20
-3073.585819765667
 30
0.0
 11
-2318.283627876688
 21
-3073.561824829392
 31
0.0
  0
ARC
  5
17C5A
330
1F
100
AcDbEntity
  8
INDUSA
  6
Continuous
100
AcDbCircle
 10
-2318.245705511001
 20
-3073.73362070018
 30
0.0
 40
0.1629966853520055
100
AcDbArc
 50
202.0026399027832
 51
236.6758799318876
  0
LWPOLYLINE
  5
17C5B
330
1F
100
AcDbEntity
  8
INDUSA
  6
Continuous
100
AcDbPolyline
 90
        6
 70
   128
 43
0.0
 10
-2318.378414101958
 20
-3073.882550505055
 10
-2318.37835753055
 20
-3073.882882799417
 10
-2318.378194129697
 20
-3073.883177632169
 10
-2318.377942450193
 20
-3073.88340143596
 10
-2318.377631441099
 20
-3073.883528807773
 10
-2318.377564479455
 20
-3073.883541370477
  0
LWPOLYLINE
  5
17C5C
330
1F
100
AcDbEntity
  8
INDUSA
  6
Continuous
100
AcDbPolyline
 90
        6
 70
   128
 43
0.0
 10
-2318.377462586603
 20
-3073.875855966905
 10
-2318.377790228705
 20
-3073.87592829885
 10
-2318.378075462538
 20
-3073.876104987252
 10
-2318.378286311823
 20
-3073.876366207418
 10
-2318.378399039404
 20
-3073.876682781336
 10
-2318.378414101958
 20
-3073.876855889835
  0
LINE
  5
17C5D
330
1F
100
AcDbEntity
  8
INDUSA
  6
Continuous
100
AcDbLine
 10
-2318.378414101958
 20
-3073.876855889835
 30
0.0
 11
-2318.378414101958
 21
-3073.882550505055
 31
0.0
  0
LWPOLYLINE
  5
17C5E
330
1F
100
AcDbEntity
  8
INDUSA
  6
Continuous
100
AcDbPolyline
 90
        5
 70
   128
 43
0.0
 10
-2318.335251753569
 20
-3073.86981684505
 10
-2318.345491873788
 20
-3073.871953757114
 10
-2318.361691492274
 20
-3073.874411009865
 10
-2318.369556827149
 20
-3073.875291482141
 10
-2318.377462586603
 20
-3073.875855966905
  0
LWPOLYLINE
  5
17C5F
330
1F
100
AcDbEntity
  8
INDUSA
  6
Continuous
100
AcDbPolyline
 90
       10
 70
   128
 43
0.0
 10
-2318.325749495274
 20
-3073.8756097139
 10
-2318.329961405197
 20
-3073.877765219985
 10
-2318.336630408969
 20
-3073.880857509817
 10
-2318.340964245786
 20
-3073.882550639575
 10
-2318.345405874387
 20
-3073.883928682207
 10
-2318.350095663718
 20
-3073.884902458306
 10
-2318.354860917958
 20
-3073.885398393272
 10
-2318.36052511108
 20
-3073.885444440918
 10
-2318.366180133219
 20
-3073.885057666688
 10
-2318.377564479455
 20
-3073.883541370477
  0
LWPOLYLINE
  5
17C61
330
1F
100
AcDbEntity
  8
INDUSA
  6
Continuous
100
AcDbPolyline
 90
        6
 70
   128
 43
0.0
 10
-2318.387406628187
 20
-3073.714646206829
 10
-2318.387407846306
 20
-3073.714975005712
 10
-2318.387299722353
 20
-3073.715285683987
 10
-2318.38709648985
 20
-3073.715540826538
 10
-2318.386818740781
 20
-3073.715717367031
 10
-2318.386588303562
 20
-3073.715773002364
  0
LINE
  5
17C62
330
1F
100
AcDbEntity
  8
INDUSA
  6
Continuous
100
AcDbLine
 10
-2318.408414101959
 20
-3073.734700417202
 30
0.0
 11
-2318.408414101959
 21
-3073.732540983156
 31
0.0
  0
LINE
  5
17C64
330
1F
100
AcDbEntity
  8
INDUSA
  6
Continuous
100
AcDbLine
 10
-2318.397320286809
 20
-3073.713024618936
 30
0.0
 11
-2318.395836597528
 21
-3073.704149081732
 31
0.0
  0
LINE
  5
17C65
330
1F
100
AcDbEntity
  8
INDUSA
  6
Continuous
100
AcDbLine
 10
-2318.406414101959
 20
-3073.698794809788
 30
0.0
 11
-2318.406414101959
 21
-3073.707002595933
 31
0.0
  0
LINE
  5
17C66
330
1F
100
AcDbEntity
  8
INDUSA
  6
Continuous
100
AcDbLine
 10
-2318.401414101959
 20
-3073.697788879875
 30
0.0
 11
-2318.401414101959
 21
-3073.697792933407
 31
0.0
  0
LINE
  5
17C67
330
1F
100
AcDbEntity
  8
INDUSA
  6
Continuous
100
AcDbLine
 10
-2318.401414101959
 20
-3073.697788879875
 30
0.0
 11
-2318.395005512792
 21
-3073.700192734328
 31
0.0
  0
ARC
  5
17C68
330
1F
100
AcDbEntity
  8
INDUSA
  6
Continuous
100
AcDbCircle
 10
-2318.245705511001
 20
-3073.73362070018
 30
0.0
 40
0.1529964687034989
100
AcDbArc
 50
167.3797303593211
 51
168.8937269174381
  0
LINE
  5
17C6A
330
1F
100
AcDbEntity
  8
INDUSA
  6
Continuous
100
AcDbLine
 10
-2318.408414101959
 20
-3073.700211798798
 30
0.0
 11
-2318.408414101959
 21
-3073.700522120994
 31
0.0
  0
LINE
  5
17C6B
330
1F
100
AcDbEntity
  8
INDUSA
  6
Continuous
100
AcDbLine
 10
-2318.401414101959
 20
-3073.688265065073
 30
0.0
 11
-2318.401414101959
 21
-3073.697788879875
 31
0.0
  0
LWPOLYLINE
  5
17C6C
330
1F
100
AcDbEntity
  8
INDUSA
  6
Continuous
100
AcDbPolyline
 90
        4
 70
   128
 43
0.0
 10
-2318.406414101959
 20
-3073.707002595933
 10
-2318.407733962869
 20
-3073.717464453517
 10
-2318.408251092703
 20
-3073.724986322401
 10
-2318.408414101959
 20
-3073.732540983156
  0
LINE
  5
17C6D
330
1F
100
AcDbEntity
  8
INDUSA
  6
Continuous
100
AcDbLine
 10
-2318.408414101959
 20
-3073.700522120994
 30
0.0
 11
-2318.408414101959
 21
-3073.732540983156
 31
0.0
  0
LWPOLYLINE
  5
17C6E
330
1F
100
AcDbEntity
  8
INDUSA
  6
Continuous
100
AcDbPolyline
 90
        8
 70
   128
 43
0.0
 10
-2318.408414101959
 20
-3073.734700417202
 10
-2318.407801682201
 20
-3073.749026276206
 10
-2318.406936094899
 20
-3073.756724449744
 10
-2318.405696856151
 20
-3073.764371369966
 10
-2318.404057921405
 20
-3073.772068268312
 10
-2318.402040398709
 20
-3073.779674709762
 10
-2318.39962304717
 20
-3073.787246088951
 10
-2318.396830592524
 20
-3073.794687296369
  0
LWPOLYLINE
  5
17C70
330
1F
100
AcDbEntity
  8
INDUSA
  6
Continuous
100
AcDbPolyline
 90
        5
 70
   128
 43
0.0
 10
-2318.384301539136
 20
-3073.715651739061
 10
-2318.3812081309
 20
-3073.714585631311
 10
-2318.378568252308
 20
-3073.712515980496
 10
-2318.376759058862
 20
-3073.709687117633
 10
-2318.376156407676
 20
-3073.707727013836
  0
LINE
  5
17C71
330
1F
100
AcDbEntity
  8
INDUSA
  6
Continuous
100
AcDbLine
 10
-2318.408414101959
 20
-3073.651556879419
 30
0.0
 11
-2318.408414101959
 21
-3073.700211798798
 31
0.0
  0
LWPOLYLINE
  5
17C72
330
1F
100
AcDbEntity
  8
INDUSA
  6
Continuous
100
AcDbPolyline
 90
        3
 70
   128
 43
0.0
 10
-2318.385573450989
 20
-3073.703873787744
 10
-2318.38646415161
 20
-3073.709040370953
 10
-2318.387353420522
 20
-3073.714192655965
  0
ARC
  5
17C73
330
1F
100
AcDbEntity
  8
INDUSA
  6
Continuous
100
AcDbCircle
 10
-2318.245705511001
 20
-3073.73362070018
 30
0.0
 40
0.142996221753376
100
AcDbArc
 50
131.7414297215425
 51
167.9933121900199
  0
LINE
  5
17C77
330
1F
100
AcDbEntity
  8
INDUSA
  6
Continuous
100
AcDbLine
 10
-2318.323404980924
 20
-3073.646539582928
 30
0.0
 11
-2318.152475181984
 21
-3073.838107915093
 31
0.0
  0
LINE
  5
17C79
330
1F
100
AcDbEntity
  8
INDUSA
  6
Continuous
100
AcDbLine
 10
-2318.107805867481
 20
-3073.818231926151
 30
0.0
 11
-2318.267174206099
 21
-3073.585819765667
 31
0.0
  0
ARC
  5
17C7C
330
1F
100
AcDbEntity
  8
INDUSA
  6
Continuous
100
AcDbCircle
 10
-2318.245705511001
 20
-3073.73362070018
 30
0.0
 40
0.1529964687034988
100
AcDbArc
 50
172.6394531901117
 51
253.1188864336491
  0
LINE
  5
17C7D
330
1F
100
AcDbEntity
  8
INDUSA
  6
Continuous
100
AcDbLine
 10
-2318.406414101958
 20
-3073.759841976073
 30
0.0
 11
-2318.406414101958
 21
-3073.947930936488
 31
0.0
  0
LINE
  5
17C7E
330
1F
100
AcDbEntity
  8
INDUSA
  6
Continuous
100
AcDbLine
 10
-2318.408414101959
 20
-3073.734621409943
 30
0.0
 11
-2318.408414101959
 21
-3073.989276847244
 31
0.0
  0
LINE
  5
17CF1
330
1F
100
AcDbEntity
  8
INDUSA
  6
Continuous
100
AcDbLine
 10
-2318.351845339654
 20
-3073.614665257199
 30
0.0
 11
-2318.401414101959
 21
-3073.648655265636
 31
0.0
  0
LWPOLYLINE
  5
17CF5
330
1F
100
AcDbEntity
  8
INDUSA
  6
Continuous
100
AcDbPolyline
 90
        5
 70
   128
 43
0.0
 10
-2318.354698283141
 20
-3073.92061118894
 10
-2318.34726598331
 20
-3073.922478361415
 10
-2318.33949824781
 20
-3073.923605117459
 10
-2318.331159182385
 20
-3073.924355720905
 10
-2318.32261307056
 20
-3073.925215188218
  0
LINE
  5
17CF6
330
1F
100
AcDbEntity
  8
INDUSA
100
AcDbLine
 10
-2318.377279559882
 20
-3073.913493862587
 30
0.0
 11
-2318.354698283141
 21
-3073.92061118894
 31
0.0
  0
LWPOLYLINE
  5
17D5D
330
1F
100
AcDbEntity
  8
INDUSA
100
AcDbPolyline
 90
       23
 70
   128
 43
0.0
 10
-2320.112651656966
 20
-3073.874864930925
 10
-2320.111059055009
 20
-3073.881572900596
 10
-2320.110489919108
 20
-3073.888778261856
 10
-2320.1107822491
 20
-3073.893926799773
 10
-2320.111649906197
 20
-3073.899054557932
 10
-2320.113556988217
 20
-3073.905429229014
 10
-2320.116369105431
 20
-3073.91171761231
 10
-2320.120060859338
 20
-3073.91785821006
 10
-2320.124606851438
 20
-3073.923789524505
 10
-2320.129715480389
 20
-3073.929204628314
 10
-2320.135581618506
 20
-3073.934391652048
 10
-2320.14215476249
 20
-3073.939298925094
 10
-2320.149384409043
 20
-3073.94387477684
 10
-2320.156916016827
 20
-3073.947924559276
 10
-2320.165019233347
 20
-3073.951634978348
 10
-2320.173619390537
 20
-3073.954966901801
 10
-2320.182641820334
 20
-3073.957881197381
 10
-2320.191927821313
 20
-3073.960325219275
 10
-2320.201570910727
 20
-3073.962336085477
 10
-2320.211472617382
 20
-3073.963891734128
 10
-2320.221534470079
 20
-3073.964970103371
 10
-2320.23026676624
 20
-3073.965507694163
 10
-2320.239044856313
 20
-3073.965687684931
  0
LWPOLYLINE
  5
17D5F
330
1F
100
AcDbEntity
  8
INDUSA
100
AcDbPolyline
 90
       20
 70
   128
 43
0.0
 10
-2320.071898279814
 20
-3073.883005538911
 10
-2320.072193336923
 20
-3073.879046982321
 10
-2320.074036462714
 20
-3073.870768862609
 10
-2320.077068566142
 20
-3073.862575075863
 10
-2320.081259818117
 20
-3073.854546908469
 10
-2320.086580389546
 20
-3073.84676564681
 10
-2320.092747678065
 20
-3073.839562075668
 10
-2320.099934127885
 20
-3073.832637051131
 10
-2320.108074525719
 20
-3073.826059431732
 10
-2320.117103658276
 20
-3073.819898076005
 10
-2320.126661924908
 20
-3073.814368357006
 10
-2320.137007677089
 20
-3073.809273318219
 10
-2320.148042738056
 20
-3073.804665583758
 10
-2320.159668931046
 20
-3073.800597777737
 10
-2320.171735962944
 20
-3073.7971276411
 10
-2320.184311692329
 20
-3073.794222430155
 10
-2320.197266707944
 20
-3073.791913020565
 10
-2320.210471598533
 20
-3073.790230287992
 10
-2320.224700968301
 20
-3073.789144030695
 10
-2320.239044856313
 20
-3073.788779690743
  0
LWPOLYLINE
  5
17D63
330
1F
100
AcDbEntity
  8
INDUSA
100
AcDbPolyline
 90
       31
 70
   128
 43
0.0
 10
-2320.124953135671
 20
-3073.853714057582
 10
-2320.12511396261
 20
-3073.854901331931
 10
-2320.125998571363
 20
-3073.859087172025
 10
-2320.127194252786
 20
-3073.863232898756
 10
-2320.128694674357
 20
-3073.867318571022
 10
-2320.130491561381
 20
-3073.871325632608
 10
-2320.132575095556
 20
-3073.875237197658
 10
-2320.134936162592
 20
-3073.879045801204
 10
-2320.137573824117
 20
-3073.882761064162
 10
-2320.140494469316
 20
-3073.886391706578
 10
-2320.143679531608
 20
-3073.889912965677
 10
-2320.147117992887
 20
-3073.893313310561
 10
-2320.150798278788
 20
-3073.896582067846
 10
-2320.154708447664
 20
-3073.899709492435
 10
-2320.158836412363
 20
-3073.902686831163
 10
-2320.163170164103
 20
-3073.905506349333
 10
-2320.167683340184
 20
-3073.908154456558
 10
-2320.172368080689
 20
-3073.910630058354
 10
-2320.177217022426
 20
-3073.912929241349
 10
-2320.182224860202
 20
-3073.915050395996
 10
-2320.187398958267
 20
-3073.916997316282
 10
-2320.192737893467
 20
-3073.918764539393
 10
-2320.19812336293
 20
-3073.920316696161
 10
-2320.203655987036
 20
-3073.921687429889
 10
-2320.209275274079
 20
-3073.922858879927
 10
-2320.214921297932
 20
-3073.923818210733
 10
-2320.220579250828
 20
-3073.924566081861
 10
-2320.226306799579
 20
-3073.925113753805
 10
-2320.232096803141
 20
-3073.925459599652
 10
-2320.237926828675
 20
-3073.925600789494
 10
-2320.239043936762
 20
-3073.925588323207
  0
LWPOLYLINE
  5
17D64
330
1F
100
AcDbEntity
  8
INDUSA
100
AcDbPolyline
 90
       31
 70
   128
 43
0.0
 10
-2320.239045479511
 20
-3073.813086586815
 10
-2320.234906267039
 20
-3073.81310705964
 10
-2320.228711224888
 20
-3073.813312663665
 10
-2320.222536767033
 20
-3073.813693117507
 10
-2320.216404967446
 20
-3073.814247411173
 10
-2320.210337510767
 20
-3073.814973667329
 10
-2320.204355385496
 20
-3073.815869217818
 10
-2320.198484597519
 20
-3073.816929954085
 10
-2320.192716579234
 20
-3073.81815439618
 10
-2320.187010819614
 20
-3073.819550308598
 10
-2320.181392190185
 20
-3073.821113502269
 10
-2320.175886268703
 20
-3073.822838417328
 10
-2320.170519276692
 20
-3073.824717989966
 10
-2320.16531755674
 20
-3073.826743651248
 10
-2320.160309500483
 20
-3073.828904253163
 10
-2320.155520976905
 20
-3073.831187593331
 10
-2320.15096515715
 20
-3073.833584330136
 10
-2320.146578482307
 20
-3073.836124603118
 10
-2320.14238445604
 20
-3073.838797423614
 10
-2320.138403670302
 20
-3073.84159121366
 10
-2320.134651102026
 20
-3073.844496286227
 10
-2320.131141111067
 20
-3073.847502006218
 10
-2320.127887089941
 20
-3073.850596976269
 10
-2320.124901160898
 20
-3073.853769276436
 10
-2320.122193925512
 20
-3073.857006769869
 10
-2320.119768772125
 20
-3073.860300438993
 10
-2320.117590035554
 20
-3073.863698779823
 10
-2320.115708823954
 20
-3073.867131396492
 10
-2320.114118745648
 20
-3073.870608474891
 10
-2320.112821972658
 20
-3073.874129542303
 10
-2320.112654319254
 20
-3073.874727043585
  0
LWPOLYLINE
  5
17D65
330
1F
100
AcDbEntity
  8
INDUSA
100
AcDbPolyline
 90
       37
 70
   128
 43
0.0
 10
-2320.239043657843
 20
-3073.98888584903
 10
-2320.232153444798
 20
-3073.988802324709
 10
-2320.225049162664
 20
-3073.988535781263
 10
-2320.21797962053
 20
-3073.988087791356
 10
-2320.210957050991
 20
-3073.987462154654
 10
-2320.203942292646
 20
-3073.986655531278
 10
-2320.196990585369
 20
-3073.985671769746
 10
-2320.190165693824
 20
-3073.984518749619
 10
-2320.183478165269
 20
-3073.983199925763
 10
-2320.17687326148
 20
-3073.981707762828
 10
-2320.170333995473
 20
-3073.980037662835
 10
-2320.163881423912
 20
-3073.97819272093
 10
-2320.157537187106
 20
-3073.976176927612
 10
-2320.151323409651
 20
-3073.973995223964
 10
-2320.14526237122
 20
-3073.971653481653
 10
-2320.139376158647
 20
-3073.969158448355
 10
-2320.133688932225
 20
-3073.966518929996
 10
-2320.128221608174
 20
-3073.96374370184
 10
-2320.122984728292
 20
-3073.960840983054
 10
-2320.117928089967
 20
-3073.957784795307
 10
-2320.11306407032
 20
-3073.954579399587
 10
-2320.108408584057
 20
-3073.951231764022
 10
-2320.10397756736
 20
-3073.947749818623
 10
-2320.099786772188
 20
-3073.944142462372
 10
-2320.095851534937
 20
-3073.940419546313
 10
-2320.092186918888
 20
-3073.936592261689
 10
-2320.088808192305
 20
-3073.932674219126
 10
-2320.0857288543
 20
-3073.92868083697
 10
-2320.082952915992
 20
-3073.924627786085
 10
-2320.08044455979
 20
-3073.920459650173
 10
-2320.078240860762
 20
-3073.916228817159
 10
-2320.076345934714
 20
-3073.911943821288
 10
-2320.07476298143
 20
-3073.907613255436
 10
-2320.073494301913
 20
-3073.903245577437
 10
-2320.072541381236
 20
-3073.898848905852
 10
-2320.071905044178
 20
-3073.894430864027
 10
-2320.071782983482
 20
-3073.892736934182
  0
LWPOLYLINE
  5
17D69
330
1F
100
AcDbEntity
  8
INDUSA
100
AcDbPolyline
 90
       37
 70
   128
 43
0.0
 10
-2320.406288238663
 20
-3073.893011918262
 10
-2320.406194339567
 20
-3073.894340676576
 10
-2320.405568588629
 20
-3073.898735948791
 10
-2320.404630319503
 20
-3073.903107206759
 10
-2320.403380797104
 20
-3073.907447601563
 10
-2320.401821241352
 20
-3073.911751093786
 10
-2320.399953113532
 20
-3073.916011274274
 10
-2320.39777830314
 20
-3073.920221340372
 10
-2320.395299295166
 20
-3073.924374145711
 10
-2320.392519287229
 20
-3073.92846231336
 10
-2320.389439345161
 20
-3073.932480326746
 10
-2320.386103595311
 20
-3073.936370802746
 10
-2320.382478057931
 20
-3073.940180516786
 10
-2320.378569579051
 20
-3073.943901222839
 10
-2320.374390425189
 20
-3073.947520364633
 10
-2320.36995610479
 20
-3073.95102456616
 10
-2320.365282119501
 20
-3073.954402462199
 10
-2320.360384082917
 20
-3073.957644139539
 10
-2320.35527804785
 20
-3073.960740667499
 10
-2320.349980252322
 20
-3073.963684135587
 10
-2320.34450123864
 20
-3073.966470127112
 10
-2320.338847175285
 20
-3073.969099109746
 10
-2320.332976490475
 20
-3073.971593036737
 10
-2320.326910719197
 20
-3073.973941951992
 10
-2320.320671258671
 20
-3073.97613721019
 10
-2320.314283020685
 20
-3073.978170164973
 10
-2320.307768517691
 20
-3073.980034199904
 10
-2320.301150370001
 20
-3073.981723647142
 10
-2320.294450945165
 20
-3073.983233836221
 10
-2320.287692015314
 20
-3073.984561106979
 10
-2320.280882834016
 20
-3073.985705223242
 10
-2320.273981784801
 20
-3073.986676704299
 10
-2320.266960669936
 20
-3073.987479636694
 10
-2320.259871545425
 20
-3073.988105880067
 10
-2320.252781460084
 20
-3073.988548727934
 10
-2320.245742374696
 20
-3073.988807063841
 10
-2320.239045965109
 20
-3073.98888377449
  0
LINE
  5
17D6C
330
1F
100
AcDbEntity
  8
INDUSA
100
AcDbLine
 10
-2320.406544856313
 20
-3073.671946486167
 30
0.0
 11
-2320.406544856313
 21
-3073.887747152964
 31
0.0
  0
LINE
  5
17D6E
330
1F
100
AcDbEntity
  8
INDUSA
100
AcDbLine
 10
-2320.405387889694
 20
-3073.670946718706
 30
0.0
 11
-2320.072544534184
 21
-3073.670946718706
 31
0.0
  0
LWPOLYLINE
  5
17D6F
330
1F
100
AcDbEntity
  8
INDUSA
100
AcDbPolyline
 90
        9
 70
   128
 43
0.0
 10
-2320.40654443185
 20
-3073.671975740721
 10
-2320.406530283315
 20
-3073.671776638584
 10
-2320.406476873424
 20
-3073.671584312753
 10
-2320.406386330127
 20
-3073.671406425843
 10
-2320.406262260835
 20
-3073.671250065195
 10
-2320.406109608697
 20
-3073.671121460507
 10
-2320.405934455655
 20
-3073.671025735624
 10
-2320.405743780129
 20
-3073.670966704404
 10
-2320.405545178984
 20
-3073.670946718759
  0
LWPOLYLINE
  5
17D73
330
1F
100
AcDbEntity
  8
INDUSA
100
AcDbPolyline
 90
       23
 70
   128
 43
0.0
 10
-2320.365438055659
 20
-3073.874864930925
 10
-2320.367030657616
 20
-3073.881572900596
 10
-2320.367599793517
 20
-3073.888778261856
 10
-2320.367307463524
 20
-3073.893926799773
 10
-2320.366439806428
 20
-3073.899054557932
 10
-2320.364532724408
 20
-3073.905429229014
 10
-2320.361720607194
 20
-3073.91171761231
 10
-2320.358028853287
 20
-3073.91785821006
 10
-2320.353482861188
 20
-3073.923789524505
 10
-2320.348374232236
 20
-3073.929204628314
 10
-2320.342508094119
 20
-3073.934391652048
 10
-2320.335934950135
 20
-3073.939298925094
 10
-2320.328705303582
 20
-3073.94387477684
 10
-2320.321173695798
 20
-3073.947924559276
 10
-2320.313070479278
 20
-3073.951634978348
 10
-2320.304470322088
 20
-3073.954966901801
 10
-2320.295447892291
 20
-3073.957881197381
 10
-2320.286161891312
 20
-3073.960325219275
 10
-2320.276518801898
 20
-3073.962336085477
 10
-2320.266617095243
 20
-3073.963891734128
 10
-2320.256555242546
 20
-3073.964970103371
 10
-2320.247822946385
 20
-3073.965507694163
 10
-2320.239044856313
 20
-3073.965687684931
  0
LWPOLYLINE
  5
17D74
330
1F
100
AcDbEntity
  8
INDUSA
100
AcDbPolyline
 90
       20
 70
   128
 43
0.0
 10
-2320.406190981627
 20
-3073.882999485726
 10
-2320.405896375702
 20
-3073.879046982321
 10
-2320.404097409151
 20
-3073.870890768513
 10
-2320.401131646305
 20
-3073.862790292035
 10
-2320.397080771292
 20
-3073.854951491564
 10
-2320.39150932308
 20
-3073.84676564681
 10
-2320.38544594984
 20
-3073.839662774093
 10
-2320.378367970462
 20
-3073.832809746159
 10
-2320.370450518788
 20
-3073.826376007197
 10
-2320.360986054348
 20
-3073.819898076005
 10
-2320.351594778986
 20
-3073.814451925866
 10
-2320.341474314792
 20
-3073.809441164727
 10
-2320.330625849795
 20
-3073.804882243993
 10
-2320.318420781579
 20
-3073.800597777737
 10
-2320.306568394773
 20
-3073.797178190349
 10
-2320.294265578166
 20
-3073.794312550682
 10
-2320.281524701909
 20
-3073.792015304629
 10
-2320.267618114092
 20
-3073.790230287992
 10
-2320.253446249073
 20
-3073.789146167678
 10
-2320.239044856313
 20
-3073.788779690743
  0
LWPOLYLINE
  5
17D76
330
1F
100
AcDbEntity
  8
INDUSA
100
AcDbPolyline
 90
       31
 70
   128
 43
0.0
 10
-2320.239045967956
 20
-3073.925603782889
 10
-2320.239076120393
 20
-3073.92560431656
 10
-2320.244912431951
 20
-3073.925501366622
 10
-2320.250726836606
 20
-3073.925192265332
 10
-2320.256495950987
 20
-3073.924678234579
 10
-2320.262196750723
 20
-3073.923961606608
 10
-2320.267815116066
 20
-3073.923044461175
 10
-2320.27336408568
 20
-3073.92192730098
 10
-2320.278872662122
 20
-3073.920605222
 10
-2320.284301675894
 20
-3073.919084761155
 10
-2320.289593446164
 20
-3073.917380142786
 10
-2320.29469787547
 20
-3073.915510370003
 10
-2320.299703648794
 20
-3073.913446498556
 10
-2320.304560311975
 20
-3073.911204053787
 10
-2320.309251025361
 20
-3073.908789684265
 10
-2320.313783421425
 20
-3073.906198960052
 10
-2320.318136515851
 20
-3073.903441596085
 10
-2320.322237885219
 20
-3073.900565254842
 10
-2320.326146440623
 20
-3073.897531903365
 10
-2320.329839489659
 20
-3073.894356260369
 10
-2320.333305547567
 20
-3073.8910463652
 10
-2320.336533061521
 20
-3073.887611247443
 10
-2320.339510681762
 20
-3073.884060839606
 10
-2320.342227472488
 20
-3073.880405891293
 10
-2320.344673106971
 20
-3073.876657846192
 10
-2320.346836802456
 20
-3073.872829493176
 10
-2320.348706752024
 20
-3073.868942233122
 10
-2320.350300587165
 20
-3073.864961113184
 10
-2320.351607576641
 20
-3073.860901445251
 10
-2320.352618407973
 20
-3073.856779340247
 10
-2320.353131795641
 20
-3073.853752270239
  0
LWPOLYLINE
  5
17D77
330
1F
100
AcDbEntity
  8
INDUSA
100
AcDbPolyline
 90
       30
 70
   128
 43
0.0
 10
-2320.365408530493
 20
-3073.87468728006
 10
-2320.36465254237
 20
-3073.872353621335
 10
-2320.363185001145
 20
-3073.868804536476
 10
-2320.361417552119
 20
-3073.865302067596
 10
-2320.359353883188
 20
-3073.861849441608
 10
-2320.356996901567
 20
-3073.858449229342
 10
-2320.354354318826
 20
-3073.855114949779
 10
-2320.351463640725
 20
-3073.851892869452
 10
-2320.348304696525
 20
-3073.848751650031
 10
-2320.344877241549
 20
-3073.845691146519
 10
-2320.341192525756
 20
-3073.842723030459
 10
-2320.337263221102
 20
-3073.839858724892
 10
-2320.333103200255
 20
-3073.837109132449
 10
-2320.328727261423
 20
-3073.83448441355
 10
-2320.324150815955
 20
-3073.831993816237
 10
-2320.319384451697
 20
-3073.829644137707
 10
-2320.314460943281
 20
-3073.827447993348
 10
-2320.309332439848
 20
-3073.825380674384
 10
-2320.304007950201
 20
-3073.823447726392
 10
-2320.298512102175
 20
-3073.821660212798
 10
-2320.29287506498
 20
-3073.82002917306
 10
-2320.28712346219
 20
-3073.818562701014
 10
-2320.281283827671
 20
-3073.81726740225
 10
-2320.27538205529
 20
-3073.816148370009
 10
-2320.269438915902
 20
-3073.815207808817
 10
-2320.263431737764
 20
-3073.814438141293
 10
-2320.257326057282
 20
-3073.813835150402
 10
-2320.251158490066
 20
-3073.813404261144
 10
-2320.244949931055
 20
-3073.813147821262
 10
-2320.239043423355
 20
-3073.813071540536
  0
LWPOLYLINE
  5
17D78
330
1F
100
AcDbEntity
  8
INDUSA
100
AcDbPolyline
 90
        4
 70
   128
 43
0.0
 10
-2320.406317538288
 20
-3073.89272536781
 10
-2320.406367814277
 20
-3073.892295230099
 10
-2320.406544856313
 20
-3073.887747152964
 10
-2320.406190981627
 20
-3073.882999485726
  0
LINE
  5
17D79
330
1F
100
AcDbEntity
  8
INDUSA
100
AcDbLine
 10
-2320.365393876224
 20
-3073.874678849081
 30
0.0
 11
-2320.365438055659
 21
-3073.874864930925
 31
0.0
  0
LINE
  5
17D8A
330
1F
100
AcDbEntity
  8
INDUSA
100
AcDbLine
 10
-2320.071544856312
 20
-3073.887747152964
 30
0.0
 11
-2320.071544856312
 21
-3073.67194663193
 31
0.0
  0
LWPOLYLINE
  5
17D8B
330
1F
100
AcDbEntity
  8
INDUSA
100
AcDbPolyline
 90
        9
 70
   128
 43
0.0
 10
-2320.07254453364
 20
-3073.670946718759
 10
-2320.072352799385
 20
-3073.67096533555
 10
-2320.072168192216
 20
-3073.671020370107
 10
-2320.071997562647
 20
-3073.671109780173
 10
-2320.071847242505
 20
-3073.671230247864
 10
-2320.071722809962
 20
-3073.671377302793
 10
-2320.071628882535
 20
-3073.671545487955
 10
-2320.071568945743
 20
-3073.671728562233
 10
-2320.071545223755
 20
-3073.671919731994
  0
LINE
  5
17D8C
330
1F
100
AcDbEntity
  8
INDUSA
100
AcDbLine
 10
-2320.112685569795
 20
-3073.874722091577
 30
0.0
 11
-2320.112651656966
 21
-3073.874864930925
 31
0.0
  0
LWPOLYLINE
  5
17D8D
330
1F
100
AcDbEntity
  8
INDUSA
100
AcDbPolyline
 90
        3
 70
   128
 43
0.0
 10
-2320.071897904876
 20
-3073.8924615513
 10
-2320.071544856312
 20
-3073.887747152964
 10
-2320.071898279814
 20
-3073.883005538911
  0
ENDSEC
  0
SECTION
  2
OBJECTS
  0
DICTIONARY
  5
C
330
0
100
AcDbDictionary
281
     1
  3
ACAD_COLOR
350
17D94
  3
ACAD_GROUP
350
D
  3
ACAD_LAYOUT
350
1A
  3
ACAD_MATERIAL
350
17D93
  3
ACAD_MLINESTYLE
350
17
  3
ACAD_PLOTSETTINGS
350
19
  3
ACAD_PLOTSTYLENAME
350
E
  3
ACAD_TABLESTYLE
350
17D95
  3
AcadDim
350
12305
  3
AcAmCatalogState
350
1629F
  3
AcAsAppObject
350
16226
  3
ACASGREF_MASTER
350
1626E
  3
ACDBHEADERROUNDTRIPXREC
350
17DB0
  3
AcDbVariableDictionary
350
3D
  3
ACDMSYSVARMGR
350
16204
  3
ACGREF_MASTER
350
152BA
  3
ACGREFACAD_MASTER
350
152BE
  3
AcmDictionary
350
152C0
  3
ACME_BOM_MANAGER_NAME
350
152B3
  3
ACME_COMMAND_HISTORY
350
152AE
  3
ACME_SCOPE_NAME
350
152AD
  3
ACMESTATEMGR
350
152B8
  3
AcmeSysVarManager
350
152AF
  3
AcmSystemVariableManager
350
152C4
  3
AD_APPL
350
16286
  3
AD_GREF_MODULE
350
1626F
  3
AD_MAPI_MODULE
350
16288
  3
ADSYSVARMGR
350
16278
  3
AmdtNamedDwgMgr
350
16220
  3
AMG
350
152A6
  3
AMGSNAPSETTINGS
350
152F2
  3
AMI_MASTER
350
152BF
  3
ASE_INDEX_DICTIONARY
350
17910
  3
ASURF_STATIC_VARS
350
16227
  3
AUTOCAD_ASSEMBLIES_PROJECT
350
16293
  3
AutoSurf_SysVars
350
16228
  3
Designer_Assemblies_SysVars
350
1628A
  3
DWGPROPS
350
17DAF
  3
GREFAM_MODULE
350
16271
  3
MAPISURF_MODULE
350
16270
  0
DICTIONARY
  5
15341
330
1F
100
AcDbDictionary
280
     1
281
     1
  3
ACAD_INDEX
360
16A40
  0
DICTIONARY
  5
17D94
102
{ACAD_REACTORS
330
C
102
}
330
C
100
AcDbDictionary
281
     1
  0
DICTIONARY
  5
D
102
{ACAD_REACTORS
330
C
102
}
330
C
100
AcDbDictionary
281
     1
  0
DICTIONARY
  5
1A
102
{ACAD_REACTORS
330
C
102
}
330
C
100
AcDbDictionary
281
     1
  3
Layout1
350
1E
  3
Layout2
350
26
  3
Model
350
22
  0
DICTIONARY
  5
17D93
102
{ACAD_REACTORS
330
C
102
}
330
C
100
AcDbDictionary
281
     1
  0
DICTIONARY
  5
17
102
{ACAD_REACTORS
330
C
102
}
330
C
100
AcDbDictionary
281
     1
  3
Standard
350
18
  0
DICTIONARY
  5
19
102
{ACAD_REACTORS
330
C
102
}
330
C
100
AcDbDictionary
281
     1
  0
ACDBDICTIONARYWDFLT
  5
E
102
{ACAD_REACTORS
330
C
102
}
330
C
100
AcDbDictionary
281
     1
  3
Normal
350
F
100
AcDbDictionaryWithDefault
340
F
  0
DICTIONARY
  5
17D95
102
{ACAD_REACTORS
330
C
102
}
330
C
100
AcDbDictionary
281
     1
  3
Standard
350
17D96
  0
XRECORD
  5
12305
102
{ACAD_REACTORS
330
C
102
}
330
C
100
AcDbXrecord
280
     1
 90
   990106
  3

 60
     0
 61
     0
 62
     1
 63
     3
 64
     0
 65
     0
 66
     0
 67
     3
 68
     1
 69
     0
 70
     0
 71
     0
 72
     0
 40
0.0
170
     0
340
0
  0
ACAD_PROXY_OBJECT
  5
1629F
102
{ACAD_REACTORS
330
C
102
}
330
C
100
AcDbProxyObject
 90
      499
 91
      578
 95
   983063
 70
     0
 93
      280
310
3FFFFFFFE00A02844028B219D2E256D2624A7AE2120A72422A4A92090222AA720C00AA00
 94
        0
1001
ACAD
1000
AcRTDxfName
1000
CATALOGSTATE
1000
AcRTDxfName
1000
CATALOGSTATE
  0
ACAD_PROXY_OBJECT
  5
16226
102
{ACAD_REACTORS
330
C
102
}
330
C
100
AcDbProxyObject
 90
      499
 91
      553
 95
   983063
 70
     0
 93
       10
310
4041
 94
        0
1001
ACAD
1000
AcRTDxfName
1000
ASAPP
1000
AcRTDxfName
1000
ASAPP
  0
ACAD_PROXY_OBJECT
  5
1626E
102
{ACAD_REACTORS
330
C
102
}
330
C
100
AcDbProxyObject
 90
      499
 91
      558
 95
   983063
 70
     0
 93
       34
310
010000407E
 94
        0
1001
ACAD
1000
AcRTDxfName
1000
ACASGREFMASTER
1000
AcRTDxfName
1000
ACASGREFMASTER
  0
DICTIONARY
  5
17DB0
102
{ACAD_REACTORS
330
C
102
}
330
C
100
AcDbDictionary
281
     1
  0
DICTIONARY
  5
3D
102
{ACAD_REACTORS
330
C
102
}
330
C
100
AcDbDictionary
281
     1
  3
CTABLESTYLE
350
17DA6
  3
DIMASSOC
350
3F
  3
HIDETEXT
350
3E
  3
INDEXCTL
350
15359
  3
PROJECTNAME
350
17DA7
  3
SORTENTS
350
17502
  0
ACAD_PROXY_OBJECT
  5
16204
102
{ACAD_REACTORS
330
C
102
}
330
C
100
AcDbProxyObject
 90
      499
 91
      509
 95
   983063
 70
     0
 93
      240
310
4C51A4820000000000000000000000000000000000000000000000000000C4
330
16205
330
16206
330
16207
330
16208
330
16209
330
1620A
330
1620B
330
1620D
330
1620E
330
1620F
330
16210
330
16211
330
16212
330
16213
330
16214
330
16215
330
16216
330
16217
330
16218
330
16219
330
1621A
330
1621B
330
1621C
330
1621D
330
1621E
330
1621F
 94
        0
1001
ACAD
1000
AcRTDxfName
1000
ACIMSYSVARMAN
1000
AcRTDxfName
1000
ACIMSYSVARMAN
  0
ACAD_PROXY_OBJECT
  5
152BA
102
{ACAD_REACTORS
330
C
102
}
330
C
100
AcDbProxyObject
 90
      499
 91
      518
 95
   983063
 70
     0
 93
       34
310
0400004290
 94
        0
1001
ACAD
1000
AcRTDxfName
1000
ACGREFMASTER
1000
AcRTDxfName
1000
ACGREFMASTER
  0
ACAD_PROXY_OBJECT
  5
152BE
102
{ACAD_REACTORS
330
C
102
}
330
C
100
AcDbProxyObject
 90
      499
 91
      521
 95
   983063
 70
     0
 93
      114
310
04000041C000000000000000000000
 94
        0
1001
ACAD
1000
AcRTDxfName
1000
ACGREFACADMASTER
1000
AcRTDxfName
1000
ACGREFACADMASTER
  0
DICTIONARY
  5
152C0
102
{ACAD_REACTORS
330
C
102
}
330
C
100
AcDbDictionary
281
     1
  3
AcmBOMDATA
350
152C1
  3
AcmStdDictionary
350
152C6
  0
ACAD_PROXY_OBJECT
  5
152B3
102
{ACAD_REACTORS
330
C
102
}
330
C
100
AcDbProxyObject
 90
      499
 91
      512
 95
   983063
 70
     0
 93
       50
310
00010040400013
330
0
330
0
330
152B4
 94
        0
1001
ACAD
1000
AcRTDxfName
1000
ACMEDRAWINGMAN
1000
AcRTDxfName
1000
ACMEDRAWINGMAN
  0
ACAD_PROXY_OBJECT
  5
152AE
102
{ACAD_REACTORS
330
C
102
}
330
C
100
AcDbProxyObject
 90
      499
 91
      508
 95
   983063
 70
     0
 93
     3690
310
478050545524153458050A414D504F57455244494D40405184D5347202D20436F6D6D616E642043414E43454C4C45442E0140556014290535413D5D15491125350101461354D1C80B4810DBDB5B585B990810D05390D1531311510B80504554E444F80504554E444F80504554E444F8050C475249505F53545245544348805
310
0C475249505F535452455443488050C475249505F535452455443488050C475249505F535452455443488050C475249505F53545245544348805044C494E4540405184D5347202D20436F6D6D616E642043414E43454C4C45442E014290535413D5D15491125350101461354D1C80B4810DBDB5B585B990810D05390D15313
310
11510B805045A4F4F4D805045A4F4F4D8050E414D4454524553455444424D4F4440805084E202D20554E444F014213880B4815539113C0504554E444F80504554E444F80504554E444F80504554E444F80504554E444F805045A4F4F4D8050545524153458050A414D504F57455244494D40405184D5347202D20436F6D6D6
310
16E642043414E43454C4C45442E01411693D3D3601415454D055916014194D055915054D0101461354D1C80B4810DBDB5B585B990810D05390D1531311510B805065341564541538050653415645415380
 94
        0
1001
ACAD
1000
AcRTDxfName
1000
ACMECOMMANDHISTORY
1000
AcRTDxfName
1000
ACMECOMMANDHISTORY
  0
ACAD_PROXY_OBJECT
  5
152AD
102
{ACAD_REACTORS
330
C
102
}
330
C
100
AcDbProxyObject
 90
      499
 91
      507
 95
   983063
 70
     0
 93
     1242
310
06000044400000000000000000001867020000000000000000000000000000000000000000000000000000000000000000000000000000000000000000000000000000000000000000000000000000000000000000000000000000000000000000000000000000000000000000000000000000000000000000000000000000
310
000000000000000000000000000000000000000000000000AAA406AAA1
360
152B0
360
152B1
360
152B2
360
152B4
360
152C5
360
161FD
360
161FE
360
161FF
360
16200
360
16201
360
16202
360
16205
360
16206
360
16207
360
16208
360
16209
360
1620A
360
1620B
360
1620D
360
1620E
360
1620F
360
16210
360
16211
360
16212
360
16213
360
16214
360
16215
360
16216
360
16217
360
16218
360
16219
360
1621A
360
1621B
360
1621C
360
1621D
360
1621E
360
1621F
360
16229
360
1622A
360
1622B
360
1622C
360
1622D
360
1622E
360
1622F
360
16230
360
16231
360
16232
360
16233
360
16234
360
16235
360
16236
360
16237
360
16238
360
16239
360
1623A
360
1623B
360
1623C
360
1623D
360
1623E
360
1623F
360
16240
360
16241
360
16242
360
16243
360
16244
360
16245
360
16246
360
16247
360
16248
360
16249
360
1624A
360
1624B
360
1624C
360
1624D
360
1624E
360
1624F
360
16250
360
16251
360
16252
360
16253
360
16254
360
16255
360
16256
360
16257
360
16258
360
16259
360
1625A
360
1625B
360
1625C
360
1625D
360
1625E
360
1625F
360
16260
360
16261
360
16262
360
16263
360
16264
360
16265
360
16266
360
16267
360
16268
360
16269
360
1626A
360
16274
360
16275
360
16276
360
16277
360
16279
360
1627A
360
1627B
360
1627C
360
1627D
360
1627E
360
1627F
360
16280
360
16281
360
16282
360
16283
360
16284
360
16285
360
1628B
360
1628C
360
1628D
360
1628E
360
1628F
360
16290
360
16291
360
16292
360
16297
360
16298
360
16299
360
1629A
360
1629B
360
1629C
 94
        0
1001
ACAD
1000
AcRTDxfName
1000
ACMESCOPE
1000
AcRTDxfName
1000
ACMESCOPE
  0
ACAD_PROXY_OBJECT
  5
152B8
102
{ACAD_REACTORS
330
C
102
}
330
C
100
AcDbProxyObject
 90
      499
 91
      517
 95
   983063
 70
     0
 93
       50
310
06000041641280
 94
        0
1001
ACAD
1000
AcRTDxfName
1000
ACMESTATEMGR
1000
AcRTDxfName
1000
ACMESTATEMGR
  0
ACAD_PROXY_OBJECT
  5
152AF
102
{ACAD_REACTORS
330
C
102
}
330
C
100
AcDbProxyObject
 90
      499
 91
      509
 95
   983063
 70
     0
 93
       48
310
90341200000070
330
152B0
330
152B1
330
152B2
 94
        0
1001
ACAD
1000
AcRTDxfName
1000
ACIMSYSVARMAN
1000
AcRTDxfName
1000
ACIMSYSVARMAN
  0
ACAD_PROXY_OBJECT
  5
152C4
102
{ACAD_REACTORS
330
C
102
}
330
C
100
AcDbProxyObject
 90
      499
 91
      509
 95
   983063
 70
     0
 93
       32
310
90140A0088
330
152C5
 94
        0
1001
ACAD
1000
AcRTDxfName
1000
ACIMSYSVARMAN
1000
AcRTDxfName
1000
ACIMSYSVARMAN
  0
ACAD_PROXY_OBJECT
  5
16286
102
{ACAD_REACTORS
330
C
102
}
330
C
100
AcDbProxyObject
 90
      499
 91
      567
 95
   983063
 70
     0
 93
       42
310
0006000043D3
330
16274
 94
        0
1001
ACAD
1000
AcRTDxfName
1000
NAMEDAPPL
1000
AcRTDxfName
1000
NAMEDAPPL
  0
ACAD_PROXY_OBJECT
  5
1626F
102
{ACAD_REACTORS
330
C
102
}
330
C
100
AcDbProxyObject
 90
      499
 91
      559
 95
   983063
 70
     0
 93
      114
310
000000438000000000000000000026
 94
        0
1001
ACAD
1000
AcRTDxfName
1000
ACADGREFMODULE
1000
AcRTDxfName
1000
ACADGREFMODULE
  0
ACAD_PROXY_OBJECT
  5
16288
102
{ACAD_REACTORS
330
C
102
}
330
C
100
AcDbProxyObject
 90
      499
 91
      569
 95
   983063
 70
     0
 93
       34
310
05000044FE
 94
        0
1001
ACAD
1000
AcRTDxfName
1000
MAPIADMODULE
1000
AcRTDxfName
1000
MAPIADMODULE
  0
ACAD_PROXY_OBJECT
  5
16278
102
{ACAD_REACTORS
330
C
102
}
330
C
100
AcDbProxyObject
 90
      499
 91
      509
 95
   983063
 70
     0
 93
      128
310
90D4420000000000000000000000000050
330
16279
330
1627A
330
1627B
330
1627C
330
1627D
330
1627E
330
1627F
330
16280
330
16281
330
16282
330
16283
330
16284
330
16285
 94
        0
1001
ACAD
1000
AcRTDxfName
1000
ACIMSYSVARMAN
1000
AcRTDxfName
1000
ACIMSYSVARMAN
  0
ACAD_PROXY_OBJECT
  5
16220
102
{ACAD_REACTORS
330
C
102
}
330
C
100
AcDbProxyObject
 90
      499
 91
      550
 95
   983063
 70
     0
 93
       42
310
000100005AD3
330
161FD
 94
        0
1001
ACAD
1000
AcRTDxfName
1000
AM_DWGMGR_NAME
1000
AcRTDxfName
1000
AM_DWGMGR_NAME
  0
DICTIONARY
  5
152A6
102
{ACAD_REACTORS
330
C
102
}
330
C
100
AcDbDictionary
281
     1
  3
AcMgSettings
350
152A7
  3
AMGLAYCFG
350
152C8
  0
DICTIONARY
  5
152F2
102
{ACAD_REACTORS
330
C
102
}
330
C
100
AcDbDictionary
281
     1
  3
DIMENSION
350
152F7
  3
FEA
350
152F6
  3
HATCH (1)
350
152F3
  3
HATCH (2)
350
152F4
  3
SIMPLE WELD
350
152F8
  3
SYMBOLS
350
152F5
  0
ACAD_PROXY_OBJECT
  5
152BF
102
{ACAD_REACTORS
330
C
102
}
330
C
100
AcDbProxyObject
 90
      499
 91
      522
 95
   983063
 70
     0
 93
       34
310
0500004290
 94
        0
1001
ACAD
1000
AcRTDxfName
1000
AMIMASTER
1000
AcRTDxfName
1000
AMIMASTER
  0
DICTIONARY
  5
17910
102
{ACAD_REACTORS
330
C
102
}
330
C
100
AcDbDictionary
281
     1
  3
ASEBlockHierarchyIndexRecord
350
17911
1001
DCO15
1040
1518262251.396
  0
ACAD_PROXY_OBJECT
  5
16227
102
{ACAD_REACTORS
330
C
102
}
330
C
100
AcDbProxyObject
 90
      499
 91
      554
 95
   983063
 70
     0
 93
      424
310
5853150200000000000000000000000000000000000000000000000000000000000000000000000000000000000000000000000000FF
330
1623A
330
1623B
330
1623C
330
1623D
330
1623E
330
1623F
330
16240
330
16241
330
16242
330
16243
330
16244
330
16245
330
16246
330
16247
330
16248
330
16249
330
1624A
330
1624B
330
1624C
330
1624D
330
1624E
330
1624F
330
16250
330
16251
330
16252
330
16253
330
16254
330
16255
330
16256
330
16257
330
16258
330
16259
330
1625A
330
1625B
330
1625C
330
1625D
330
1625E
330
1625F
330
16260
330
16261
330
16262
330
16263
330
16264
330
16265
330
16266
330
16267
330
16268
330
16269
330
1626A
 94
        0
1001
ACAD
1000
AcRTDxfName
1000
IM_STATIC_MAN
1000
AcRTDxfName
1000
IM_STATIC_MAN
  0
ACAD_PROXY_OBJECT
  5
16293
102
{ACAD_REACTORS
330
C
102
}
330
C
100
AcDbProxyObject
 90
      499
 91
      571
 95
   983063
 70
     0
 93
       74
310
0600004A400000000013
330
1629A
330
0
330
1629B
330
0
330
0
 94
        0
1001
ACAD
1000
AcRTDxfName
1000
ACAMPROJECT
1000
AcRTDxfName
1000
ACAMPROJECT
  0
ACAD_PROXY_OBJECT
  5
16228
102
{ACAD_REACTORS
330
C
102
}
330
C
100
AcDbProxyObject
 90
      499
 91
      509
 95
   983063
 70
     0
 93
      168
310
4C511482000000000000000000000000000000000080
330
16229
330
1622A
330
1622B
330
1622C
330
1622D
330
1622E
330
1622F
330
16230
330
16231
330
16232
330
16233
330
16234
330
16235
330
16236
330
16237
330
16238
330
16239
 94
        0
1001
ACAD
1000
AcRTDxfName
1000
ACIMSYSVARMAN
1000
AcRTDxfName
1000
ACIMSYSVARMAN
  0
ACAD_PROXY_OBJECT
  5
1628A
102
{ACAD_REACTORS
330
C
102
}
330
C
100
AcDbProxyObject
 90
      499
 91
      509
 95
   983063
 70
     0
 93
       88
310
908422000000000000000000
330
1628B
330
1628C
330
1628D
330
1628E
330
1628F
330
16290
330
16291
330
16292
 94
        0
1001
ACAD
1000
AcRTDxfName
1000
ACIMSYSVARMAN
1000
AcRTDxfName
1000
ACIMSYSVARMAN
  0
XRECORD
  5
17DAF
102
{ACAD_REACTORS
330
C
102
}
330
C
100
AcDbXrecord
280
     1
  1
DWGPROPS COOKIE
  2

  3

  4

  6

  7

  8

  9

300
AmdtFileType=84
301
=
302
=
303
=
304
=
305
=
306
=
307
=
308
=
309
=
 40
0.0744553587962963
 41
2452825.509858391
 42
2453894.731666666
  1

 90
        1
  0
ACAD_PROXY_OBJECT
  5
16271
102
{ACAD_REACTORS
330
C
102
}
330
C
100
AcDbProxyObject
 90
      499
 91
      561
 95
   983063
 70
     0
 93
        8
310
057E
 94
        0
1001
ACAD
1000
AcRTDxfName
1000
MAPIAMMOUDLE
1000
AcRTDxfName
1000
MAPIAMMOUDLE
  0
ACAD_PROXY_OBJECT
  5
16270
102
{ACAD_REACTORS
330
C
102
}
330
C
100
AcDbProxyObject
 90
      499
 91
      560
 95
   983063
 70
     0
 93
        8
310
047E
 94
        0
1001
ACAD
1000
AcRTDxfName
1000
AMDTMAPISURFMOUDULE
1000
AcRTDxfName
1000
AMDTMAPISURFMOUDULE
  0
DICTIONARY
  5
16A40
102
{ACAD_REACTORS
330
15341
102
}
330
15341
100
AcDbDictionary
281
     1
  3
*A1
350
16A41
  0
LAYOUT
  5
1E
102
{ACAD_XDICTIONARY
360
17DB1
102
}
102
{ACAD_REACTORS
330
1A
102
}
330
1A
100
AcDbPlotSettings
  1

  2
Ploter HP500
  4

  6

 40
0.0
 41
0.0
 42
0.0
 43
0.0
 44
0.0
 45
0.0
 46
0.0
 47
0.0
 48
0.0
 49
0.0
140
0.0
141
0.0
142
1.0
143
1.0
 70
   688
 72
     0
 73
     0
 74
     5
  7
monochrome.ctb
 75
    16
147
1.0
148
0.0
149
0.0
100
AcDbLayout
  1
Layout1
 70
     1
 71
     1
 10
0.0
 20
0.0
 11
420.0
 21
297.0
 12
0.0
 22
0.0
 32
0.0
 14
1.000000000000000E+20
 24
1.000000000000000E+20
 34
1.000000000000000E+20
 15
-1.000000000000000E+20
 25
-1.000000000000000E+20
 35
-1.000000000000000E+20
146
0.0
 13
0.0
 23
0.0
 33
0.0
 16
1.0
 26
0.0
 36
0.0
 17
0.0
 27
1.0
 37
0.0
 76
     0
330
1B
  0
LAYOUT
  5
26
102
{ACAD_XDICTIONARY
360
17DB5
102
}
102
{ACAD_REACTORS
330
1A
102
}
330
1A
100
AcDbPlotSettings
  1

  2
Ploter HP500
  4

  6

 40
0.0
 41
0.0
 42
0.0
 43
0.0
 44
0.0
 45
0.0
 46
0.0
 47
0.0
 48
0.0
 49
0.0
140
0.0
141
0.0
142
1.0
143
1.0
 70
   688
 72
     0
 73
     0
 74
     5
  7
monochrome.ctb
 75
    16
147
1.0
148
0.0
149
0.0
100
AcDbLayout
  1
Layout2
 70
     1
 71
     2
 10
0.0
 20
0.0
 11
12.0
 21
9.0
 12
0.0
 22
0.0
 32
0.0
 14
0.0
 24
0.0
 34
0.0
 15
0.0
 25
0.0
 35
0.0
146
0.0
 13
0.0
 23
0.0
 33
0.0
 16
1.0
 26
0.0
 36
0.0
 17
0.0
 27
1.0
 37
0.0
 76
     0
330
23
  0
LAYOUT
  5
22
102
{ACAD_XDICTIONARY
360
17DB3
102
}
102
{ACAD_REACTORS
330
1A
102
}
330
1A
100
AcDbPlotSettings
  1

  2
none_device
  4
Letter_(8.50_x_11.00_Inches)
  6

 40
6.349999904632568
 41
6.349999904632568
 42
6.350006103515625
 43
6.350006103515625
 44
215.8999938964844
 45
279.3999938964844
 46
0.0
 47
0.0
 48
0.0
 49
0.0
140
0.0
141
0.0
142
1.0
143
1.0
 70
 11952
 72
     1
 73
     1
 74
     0
  7

 75
     0
147
1.0
148
-2003.148730817642
149
-134.7075160843851
100
AcDbLayout
  1
Model
 70
     1
 71
     0
 10
0.0
 20
0.0
 11
12.0
 21
9.0
 12
0.0
 22
0.0
 32
0.0
 14
0.0
 24
0.0
 34
0.0
 15
0.0
 25
0.0
 35
0.0
146
0.0
 13
0.0
 23
0.0
 33
0.0
 16
1.0
 26
0.0
 36
0.0
 17
0.0
 27
1.0
 37
0.0
 76
     0
330
1F
  0
MLINESTYLE
  5
18
102
{ACAD_REACTORS
330
17
102
}
330
17
100
AcDbMlineStyle
  2
STANDARD
 70
     0
  3

 62
   256
 51
90.0
 52
90.0
 71
     2
 49
0.5
 62
   256
  6
BYLAYER
 49
-0.5
 62
   256
  6
BYLAYER
  0
ACDBPLACEHOLDER
  5
F
102
{ACAD_REACTORS
330
E
102
}
330
E
  0
TABLESTYLE
  5
17D96
102
{ACAD_REACTORS
330
17D95
102
}
330
17D95
100
AcDbTableStyle
  3
Standard
 70
     0
 71
     0
 40
1.5
 41
1.5
280
     0
281
     0
  7
Standard
140
4.5
170
     2
 62
     0
 63
     7
283
     0
274
    -2
284
     1
 64
     0
275
    -2
285
     1
 65
     0
276
    -2
286
     1
 66
     0
277
    -2
287
     1
 67
     0
278
    -2
288
     1
 68
     0
279
    -2
289
     1
 69
     0
  7
Standard
140
6.0
170
     5
 62
     0
 63
     7
283
     0
274
    -2
284
     1
 64
     0
275
    -2
285
     1
 65
     0
276
    -2
286
     1
 66
     0
277
    -2
287
     1
 67
     0
278
    -2
288
     1
 68
     0
279
    -2
289
     1
 69
     0
  7
Standard
140
4.5
170
     5
 62
     0
 63
     7
283
     0
274
    -2
284
     1
 64
     0
275
    -2
285
     1
 65
     0
276
    -2
286
     1
 66
     0
277
    -2
287
     1
 67
     0
278
    -2
288
     1
 68
     0
279
    -2
289
     1
 69
     0
  0
DICTIONARYVAR
  5
17DA6
102
{ACAD_REACTORS
330
3D
102
}
330
3D
100
DictionaryVariables
280
     0
  1
STANDARD
  0
DICTIONARYVAR
  5
3F
102
{ACAD_REACTORS
330
3D
102
}
330
3D
100
DictionaryVariables
280
     0
  1
2
  0
DICTIONARYVAR
  5
3E
102
{ACAD_REACTORS
330
3D
102
}
330
3D
100
DictionaryVariables
280
     0
  1
1
  0
DICTIONARYVAR
  5
15359
102
{ACAD_REACTORS
330
3D
102
}
330
3D
100
DictionaryVariables
280
     0
  1
1
  0
DICTIONARYVAR
  5
17DA7
102
{ACAD_REACTORS
330
3D
102
}
330
3D
100
DictionaryVariables
280
     0
  1

  0
DICTIONARYVAR
  5
17502
102
{ACAD_REACTORS
330
3D
102
}
330
3D
100
DictionaryVariables
280
     0
  1
1
  0
ACAD_PROXY_OBJECT
  5
152C1
102
{ACAD_REACTORS
330
152C0
102
}
330
152C0
100
AcDbProxyObject
 90
      499
 91
      523
 95
   983063
 70
     0
 93
      118
310
405010040CA904C415CD5B07571028
350
152C2
 94
        0
1001
ACAD
1000
AcRTDxfName
1000
ACMDATADICTIONARY
1000
AcRTDxfName
1000
ACMDATADICTIONARY
  0
DICTIONARY
  5
152C6
102
{ACAD_REACTORS
330
152C0
102
}
330
152C0
100
AcDbDictionary
281
     1
  3
ISO
350
152C7
  0
ACAD_PROXY_OBJECT
  5
152B0
330
0
100
AcDbProxyObject
 90
      499
 91
      510
 95
   983063
 70
     0
 93
      156
310
00010143D050D351505391D5531054925390D499
330
152AD
 94
        0
1001
ACAD
1000
AcRTDxfName
1000
ACIMREALSYSVAR
1000
AcRTDxfName
1000
ACIMREALSYSVAR
  0
ACAD_PROXY_OBJECT
  5
152B1
330
0
100
AcDbProxyObject
 90
      499
 91
      510
 95
   983063
 70
     0
 93
      148
310
000101439050D351531253915054925390D490
330
152AD
 94
        0
1001
ACAD
1000
AcRTDxfName
1000
ACIMREALSYSVAR
1000
AcRTDxfName
1000
ACIMREALSYSVAR
  0
ACAD_PROXY_OBJECT
  5
152B2
330
0
100
AcDbProxyObject
 90
      499
 91
      511
 95
   983063
 70
     0
 93
      156
310
000101439050D35154D6535093D314D256915089
330
152AD
 94
        0
1001
ACAD
1000
AcRTDxfName
1000
ACIMINTSYSVAR
1000
AcRTDxfName
1000
ACIMINTSYSVAR
  0
ACAD_PROXY_OBJECT
  5
152B4
330
0
100
AcDbProxyObject
 90
      499
 91
      513
 95
   983063
 70
     0
 93
       88
310
000101411093D34C402B0000
330
152AD
330
0
330
0
 94
        0
1001
ACAD
1000
AcRTDxfName
1000
ACMEVIEW
1000
AcRTDxfName
1000
ACMEVIEW
  0
ACAD_PROXY_OBJECT
  5
152C5
330
0
100
AcDbProxyObject
 90
      499
 91
      525
 95
   983063
 70
     0
 93
      140
310
00010142105350D55494D5110050349534F1
330
152AD
 94
        0
1001
ACAD
1000
AcRTDxfName
1000
ACIMSTRSYSVAR
1000
AcRTDxfName
1000
ACIMSTRSYSVAR
  0
ACAD_PROXY_OBJECT
  5
161FD
330
0
100
AcDbProxyObject
 90
      499
 91
      546
 95
   983063
 70
     0
 93
      358
310
0001014119185D1940507362E332E302E31014119185D1940507362E332E302E3140501000041505391D311658
330
152AD
330
161FE
330
16204
 94
        0
1001
ACAD
1000
AcRTDxfName
1000
AM_DRAWING_MGR
1000
AcRTDxfName
1000
AM_DRAWING_MGR
  0
ACAD_PROXY_OBJECT
  5
161FE
330
0
100
AcDbProxyObject
 90
      499
 91
      547
 95
   983063
 70
     0
 93
       56
310
0001902422000082
330
152AD
330
161FF
330
16201
 94
        0
1001
ACAD
1000
AcRTDxfName
1000
AM_DWG_DOCUMENT
1000
AcRTDxfName
1000
AM_DWG_DOCUMENT
  0
ACAD_PROXY_OBJECT
  5
161FF
330
0
100
AcDbProxyObject
 90
      499
 91
      548
 95
   983063
 70
     0
 93
       48
310
0001AA00000060
330
152AD
330
1E
330
16200
330
0
 94
        0
1001
ACAD
1000
AcRTDxfName
1000
AM_DWG_SHEET
1000
AcRTDxfName
1000
AM_DWG_SHEET
  0
ACAD_PROXY_OBJECT
  5
16200
330
0
100
AcDbProxyObject
 90
      499
 91
      549
 95
   983063
 70
     0
 93
       28
310
0001AAA9
330
152AD
 94
        0
1001
ACAD
1000
AcRTDxfName
1000
AM_VIEWDIMPARMAP
1000
AcRTDxfName
1000
AM_VIEWDIMPARMAP
  0
ACAD_PROXY_OBJECT
  5
16201
330
0
100
AcDbProxyObject
 90
      499
 91
      548
 95
   983063
 70
     0
 93
       48
310
0001AA00000050
330
152AD
330
26
330
16202
330
0
 94
        0
1001
ACAD
1000
AcRTDxfName
1000
AM_DWG_SHEET
1000
AcRTDxfName
1000
AM_DWG_SHEET
  0
ACAD_PROXY_OBJECT
  5
16202
330
0
100
AcDbProxyObject
 90
      499
 91
      549
 95
   983063
 70
     0
 93
       28
310
0001AAA9
330
152AD
 94
        0
1001
ACAD
1000
AcRTDxfName
1000
AM_VIEWDIMPARMAP
1000
AcRTDxfName
1000
AM_VIEWDIMPARMAP
  0
ACAD_PROXY_OBJECT
  5
16205
330
0
100
AcDbProxyObject
 90
      499
 91
      511
 95
   983063
 70
     0
 93
      108
310
000101421053521310D05310D019
330
152AD
 94
        0
1001
ACAD
1000
AcRTDxfName
1000
ACIMINTSYSVAR
1000
AcRTDxfName
1000
ACIMINTSYSVAR
  0
ACAD_PROXY_OBJECT
  5
16206
330
0
100
AcDbProxyObject
 90
      499
 91
      511
 95
   983063
 70
     0
 93
      124
310
00010142905354915554D15112535010
330
152AD
 94
        0
1001
ACAD
1000
AcRTDxfName
1000
ACIMINTSYSVAR
1000
AcRTDxfName
1000
ACIMINTSYSVAR
  0
ACAD_PROXY_OBJECT
  5
16207
330
0
100
AcDbProxyObject
 90
      499
 91
      511
 95
   983063
 70
     0
 93
      132
310
00010143105354D150D51253D391125360
330
152AD
 94
        0
1001
ACAD
1000
AcRTDxfName
1000
ACIMINTSYSVAR
1000
AcRTDxfName
1000
ACIMINTSYSVAR
  0
ACAD_PROXY_OBJECT
  5
16208
330
0
100
AcDbProxyObject
 90
      499
 91
      511
 95
   983063
 70
     0
 93
      124
310
00010142905355941093D49111549010
330
152AD
 94
        0
1001
ACAD
1000
AcRTDxfName
1000
ACIMINTSYSVAR
1000
AcRTDxfName
1000
ACIMINTSYSVAR
  0
ACAD_PROXY_OBJECT
  5
16209
330
0
100
AcDbProxyObject
 90
      499
 91
      511
 95
   983063
 70
     0
 93
      116
310
0001014290535115D1D0D3D313D4A2
330
152AD
 94
        0
1001
ACAD
1000
AcRTDxfName
1000
ACIMINTSYSVAR
1000
AcRTDxfName
1000
ACIMINTSYSVAR
  0
ACAD_PROXY_OBJECT
  5
1620A
330
0
100
AcDbProxyObject
 90
      499
 91
      511
 95
   983063
 70
     0
 93
      148
310
00010143505355925155D49151949154D21019
330
152AD
 94
        0
1001
ACAD
1000
AcRTDxfName
1000
ACIMINTSYSVAR
1000
AcRTDxfName
1000
ACIMINTSYSVAR
  0
ACAD_PROXY_OBJECT
  5
1620B
330
0
100
AcDbProxyObject
 90
      499
 91
      511
 95
   983063
 70
     0
 93
      172
310
00010144105350539393D51154149154D15495915011
330
152AD
 94
        0
1001
ACAD
1000
AcRTDxfName
1000
ACIMINTSYSVAR
1000
AcRTDxfName
1000
ACIMINTSYSVAR
  0
ACAD_PROXY_OBJECT
  5
1620D
330
0
100
AcDbProxyObject
 90
      499
 91
      511
 95
   983063
 70
     0
 93
      172
310
00010144105350555513D11253505494905391D15018
330
152AD
 94
        0
1001
ACAD
1000
AcRTDxfName
1000
ACIMINTSYSVAR
1000
AcRTDxfName
1000
ACIMINTSYSVAR
  0
ACAD_PROXY_OBJECT
  5
1620E
330
0
100
AcDbProxyObject
 90
      499
 91
      511
 95
   983063
 70
     0
 93
      124
310
00010142D05351561514915191125364
330
152AD
 94
        0
1001
ACAD
1000
AcRTDxfName
1000
ACIMINTSYSVAR
1000
AcRTDxfName
1000
ACIMINTSYSVAR
  0
ACAD_PROXY_OBJECT
  5
1620F
330
0
100
AcDbProxyObject
 90
      499
 91
      511
 95
   983063
 70
     0
 93
      132
310
00010142D05355105410539393D5115010
330
152AD
 94
        0
1001
ACAD
1000
AcRTDxfName
1000
ACIMINTSYSVAR
1000
AcRTDxfName
1000
ACIMINTSYSVAR
  0
ACAD_PROXY_OBJECT
  5
16210
330
0
100
AcDbProxyObject
 90
      499
 91
      511
 95
   983063
 70
     0
 93
      108
310
00010142105350555513D0D31012
330
152AD
 94
        0
1001
ACAD
1000
AcRTDxfName
1000
ACIMINTSYSVAR
1000
AcRTDxfName
1000
ACIMINTSYSVAR
  0
ACAD_PROXY_OBJECT
  5
16211
330
0
100
AcDbProxyObject
 90
      499
 91
      511
 95
   983063
 70
     0
 93
      108
310
00010142105350D3119150551055
330
152AD
 94
        0
1001
ACAD
1000
AcRTDxfName
1000
ACIMINTSYSVAR
1000
AcRTDxfName
1000
ACIMINTSYSVAR
  0
ACAD_PROXY_OBJECT
  5
16212
330
0
100
AcDbProxyObject
 90
      499
 91
      511
 95
   983063
 70
     0
 93
      108
310
00010142105350D315925155D3F2
330
152AD
 94
        0
1001
ACAD
1000
AcRTDxfName
1000
ACIMINTSYSVAR
1000
AcRTDxfName
1000
ACIMINTSYSVAR
  0
ACAD_PROXY_OBJECT
  5
16213
330
0
100
AcDbProxyObject
 90
      499
 91
      511
 95
   983063
 70
     0
 93
      148
310
0001014350535212511156915493D112535011
330
152AD
 94
        0
1001
ACAD
1000
AcRTDxfName
1000
ACIMINTSYSVAR
1000
AcRTDxfName
1000
ACIMINTSYSVAR
  0
ACAD_PROXY_OBJECT
  5
16214
330
0
100
AcDbProxyObject
 90
      499
 91
      511
 95
   983063
 70
     0
 93
      124
310
00010142905352105510D21254D3D014
330
152AD
 94
        0
1001
ACAD
1000
AcRTDxfName
1000
ACIMINTSYSVAR
1000
AcRTDxfName
1000
ACIMINTSYSVAR
  0
ACAD_PROXY_OBJECT
  5
16215
330
0
100
AcDbProxyObject
 90
      499
 91
      511
 95
   983063
 70
     0
 93
      148
310
00010143905354D25391D31152105513105661
330
152AD
 94
        0
1001
ACAD
1000
AcRTDxfName
1000
ACIMINTSYSVAR
1000
AcRTDxfName
1000
ACIMINTSYSVAR
  0
ACAD_PROXY_OBJECT
  5
16216
330
0
100
AcDbProxyObject
 90
      499
 91
      511
 95
   983063
 70
     0
 93
      124
310
00010142D0535115D1D193111254D424
330
152AD
 94
        0
1001
ACAD
1000
AcRTDxfName
1000
ACIMINTSYSVAR
1000
AcRTDxfName
1000
ACIMINTSYSVAR
  0
ACAD_PROXY_OBJECT
  5
16217
330
0
100
AcDbProxyObject
 90
      499
 91
      511
 95
   983063
 70
     0
 93
      100
310
00010142105350555513D213A2
330
152AD
 94
        0
1001
ACAD
1000
AcRTDxfName
1000
ACIMINTSYSVAR
1000
AcRTDxfName
1000
ACIMINTSYSVAR
  0
ACAD_PROXY_OBJECT
  5
16218
330
0
100
AcDbProxyObject
 90
      499
 91
      511
 95
   983063
 70
     0
 93
      116
310
000101425053521390D3D553951014
330
152AD
 94
        0
1001
ACAD
1000
AcRTDxfName
1000
ACIMINTSYSVAR
1000
AcRTDxfName
1000
ACIMINTSYSVAR
  0
ACAD_PROXY_OBJECT
  5
16219
330
0
100
AcDbProxyObject
 90
      499
 91
      511
 95
   983063
 70
     0
 93
      108
310
0001014210535213941493D29010
330
152AD
 94
        0
1001
ACAD
1000
AcRTDxfName
1000
ACIMINTSYSVAR
1000
AcRTDxfName
1000
ACIMINTSYSVAR
  0
ACAD_PROXY_OBJECT
  5
1621A
330
0
100
AcDbProxyObject
 90
      499
 91
      511
 95
   983063
 70
     0
 93
      108
310
0001014210535213951654115070
330
152AD
 94
        0
1001
ACAD
1000
AcRTDxfName
1000
ACIMINTSYSVAR
1000
AcRTDxfName
1000
ACIMINTSYSVAR
  0
ACAD_PROXY_OBJECT
  5
1621B
330
0
100
AcDbProxyObject
 90
      499
 91
      511
 95
   983063
 70
     0
 93
      108
310
000101421053521395925155D0F0
330
152AD
 94
        0
1001
ACAD
1000
AcRTDxfName
1000
ACIMINTSYSVAR
1000
AcRTDxfName
1000
ACIMINTSYSVAR
  0
ACAD_PROXY_OBJECT
  5
1621C
330
0
100
AcDbProxyObject
 90
      499
 91
      511
 95
   983063
 70
     0
 93
      140
310
00010143505354D150D51253D390D3D41666
330
152AD
 94
        0
1001
ACAD
1000
AcRTDxfName
1000
ACIMINTSYSVAR
1000
AcRTDxfName
1000
ACIMINTSYSVAR
  0
ACAD_PROXY_OBJECT
  5
1621D
330
0
100
AcDbProxyObject
 90
      499
 91
      511
 95
   983063
 70
     0
 93
      108
310
00010142105350D3141493D29030
330
152AD
 94
        0
1001
ACAD
1000
AcRTDxfName
1000
ACIMINTSYSVAR
1000
AcRTDxfName
1000
ACIMINTSYSVAR
  0
ACAD_PROXY_OBJECT
  5
1621E
330
0
100
AcDbProxyObject
 90
      499
 91
      510
 95
   983063
 70
     0
 93
      212
310
00010143905350555513D2105510D21493D500000000000002E400
330
152AD
 94
        0
1001
ACAD
1000
AcRTDxfName
1000
ACIMREALSYSVAR
1000
AcRTDxfName
1000
ACIMREALSYSVAR
  0
ACAD_PROXY_OBJECT
  5
1621F
330
0
100
AcDbProxyObject
 90
      499
 91
      511
 95
   983063
 70
     0
 93
      156
310
00010143905350555513D2105510D21111551010
330
152AD
 94
        0
1001
ACAD
1000
AcRTDxfName
1000
ACIMINTSYSVAR
1000
AcRTDxfName
1000
ACIMINTSYSVAR
  0
ACAD_PROXY_OBJECT
  5
16229
330
0
100
AcDbProxyObject
 90
      499
 91
      511
 95
   983063
 70
     0
 93
      116
310
000101425053541051D15311539190
330
152AD
 94
        0
1001
ACAD
1000
AcRTDxfName
1000
ACIMINTSYSVAR
1000
AcRTDxfName
1000
ACIMINTSYSVAR
  0
ACAD_PROXY_OBJECT
  5
1622A
330
0
100
AcDbProxyObject
 90
      499
 91
      511
 95
   983063
 70
     0
 93
      108
310
000101421053555312539154D051
330
152AD
 94
        0
1001
ACAD
1000
AcRTDxfName
1000
ACIMINTSYSVAR
1000
AcRTDxfName
1000
ACIMINTSYSVAR
  0
ACAD_PROXY_OBJECT
  5
1622B
330
0
100
AcDbProxyObject
 90
      499
 91
      511
 95
   983063
 70
     0
 93
      108
310
000101421053559312539154D031
330
152AD
 94
        0
1001
ACAD
1000
AcRTDxfName
1000
ACIMINTSYSVAR
1000
AcRTDxfName
1000
ACIMINTSYSVAR
  0
ACAD_PROXY_OBJECT
  5
1622C
330
0
100
AcDbProxyObject
 90
      499
 91
      511
 95
   983063
 70
     0
 93
      140
310
00010143105354D1911254D41353D1115010
330
152AD
 94
        0
1001
ACAD
1000
AcRTDxfName
1000
ACIMINTSYSVAR
1000
AcRTDxfName
1000
ACIMINTSYSVAR
  0
ACAD_PROXY_OBJECT
  5
1622D
330
0
100
AcDbProxyObject
 90
      499
 91
      510
 95
   983063
 70
     0
 93
      172
310
00010142505354119255105391C1C052DC9A6F104400
330
152AD
 94
        0
1001
ACAD
1000
AcRTDxfName
1000
ACIMREALSYSVAR
1000
AcRTDxfName
1000
ACIMREALSYSVAR
  0
ACAD_PROXY_OBJECT
  5
1622E
330
0
100
AcDbProxyObject
 90
      499
 91
      510
 95
   983063
 70
     0
 93
      164
310
000101421053559150D05551C000000000000E03F4
330
152AD
 94
        0
1001
ACAD
1000
AcRTDxfName
1000
ACIMREALSYSVAR
1000
AcRTDxfName
1000
ACIMREALSYSVAR
  0
ACAD_PROXY_OBJECT
  5
1622F
330
0
100
AcDbProxyObject
 90
      499
 91
      510
 95
   983063
 70
     0
 93
      180
310
00010142905350931153911513D307B14AE47E17A843F0
330
152AD
 94
        0
1001
ACAD
1000
AcRTDxfName
1000
ACIMREALSYSVAR
1000
AcRTDxfName
1000
ACIMREALSYSVAR
  0
ACAD_PROXY_OBJECT
  5
16230
330
0
100
AcDbProxyObject
 90
      499
 91
      510
 95
   983063
 70
     0
 93
      172
310
0001014250535293D25391D05407B14AE47E17A843F3
330
152AD
 94
        0
1001
ACAD
1000
AcRTDxfName
1000
ACIMREALSYSVAR
1000
AcRTDxfName
1000
ACIMREALSYSVAR
  0
ACAD_PROXY_OBJECT
  5
16231
330
0
100
AcDbProxyObject
 90
      499
 91
      510
 95
   983063
 70
     0
 93
      172
310
000101425053541192551311538000000FC83D797413
330
152AD
 94
        0
1001
ACAD
1000
AcRTDxfName
1000
ACIMREALSYSVAR
1000
AcRTDxfName
1000
ACIMREALSYSVAR
  0
ACAD_PROXY_OBJECT
  5
16232
330
0
100
AcDbProxyObject
 90
      499
 91
      510
 95
   983063
 70
     0
 93
      156
310
00010141D053559150D4D18000000000000E03F9
330
152AD
 94
        0
1001
ACAD
1000
AcRTDxfName
1000
ACIMREALSYSVAR
1000
AcRTDxfName
1000
ACIMREALSYSVAR
  0
ACAD_PROXY_OBJECT
  5
16233
330
0
100
AcDbProxyObject
 90
      499
 91
      510
 95
   983063
 70
     0
 93
      156
310
00010141D05354D19513D309A9999999999993F9
330
152AD
 94
        0
1001
ACAD
1000
AcRTDxfName
1000
ACIMREALSYSVAR
1000
AcRTDxfName
1000
ACIMREALSYSVAR
  0
ACAD_PROXY_OBJECT
  5
16234
330
0
100
AcDbProxyObject
 90
      499
 91
      510
 95
   983063
 70
     0
 93
      172
310
000101425053541192551513D307B14AE47E17A843F3
330
152AD
 94
        0
1001
ACAD
1000
AcRTDxfName
1000
ACIMREALSYSVAR
1000
AcRTDxfName
1000
ACIMREALSYSVAR
  0
ACAD_PROXY_OBJECT
  5
16235
330
0
100
AcDbProxyObject
 90
      499
 91
      510
 95
   983063
 70
     0
 93
      188
310
00010142D05354D151D192551513D307B14AE47E17A843F0
330
152AD
 94
        0
1001
ACAD
1000
AcRTDxfName
1000
ACIMREALSYSVAR
1000
AcRTDxfName
1000
ACIMREALSYSVAR
  0
ACAD_PROXY_OBJECT
  5
16236
330
0
100
AcDbProxyObject
 90
      499
 91
      510
 95
   983063
 70
     0
 93
      148
310
000101419053541311538000000FC83D797414
330
152AD
 94
        0
1001
ACAD
1000
AcRTDxfName
1000
ACIMREALSYSVAR
1000
AcRTDxfName
1000
ACIMREALSYSVAR
  0
ACAD_PROXY_OBJECT
  5
16237
330
0
100
AcDbProxyObject
 90
      499
 91
      510
 95
   983063
 70
     0
 93
      172
310
00010142505354105391D513D301C052DC9A6F104408
330
152AD
 94
        0
1001
ACAD
1000
AcRTDxfName
1000
ACIMREALSYSVAR
1000
AcRTDxfName
1000
ACIMREALSYSVAR
  0
ACAD_PROXY_OBJECT
  5
16238
330
0
100
AcDbProxyObject
 90
      499
 91
      510
 95
   983063
 70
     0
 93
      132
310
0001014114D25691400000000000024400
330
152AD
 94
        0
1001
ACAD
1000
AcRTDxfName
1000
ACIMREALSYSVAR
1000
AcRTDxfName
1000
ACIMREALSYSVAR
  0
ACAD_PROXY_OBJECT
  5
16239
330
0
100
AcDbProxyObject
 90
      499
 91
      525
 95
   983063
 70
     0
 93
      156
310
00010142905351D4941491519256005034153478
330
152AD
 94
        0
1001
ACAD
1000
AcRTDxfName
1000
ACIMSTRSYSVAR
1000
AcRTDxfName
1000
ACIMSTRSYSVAR
  0
ACAD_PROXY_OBJECT
  5
1623A
330
0
100
AcDbProxyObject
 90
      499
 91
      555
 95
   983063
 70
     0
 93
      314
310
00014080509646973745363616C650000000000003C2FC000000000000F0BF0000003F20F5E5D07E
330
152AD
 94
        0
1001
ACAD
1000
AcRTDxfName
1000
ACIMDBLSTATICVAR
1000
AcRTDxfName
1000
ACIMDBLSTATICVAR
  0
ACAD_PROXY_OBJECT
  5
1623B
330
0
100
AcDbProxyObject
 90
      499
 91
      555
 95
   983063
 70
     0
 93
      322
310
0001408050A65646175526F74617465060B51153EC87E4FC182D4454FB2119C0060B51153EC846501B
330
152AD
 94
        0
1001
ACAD
1000
AcRTDxfName
1000
ACIMDBLSTATICVAR
1000
AcRTDxfName
1000
ACIMDBLSTATICVAR
  0
ACAD_PROXY_OBJECT
  5
1623C
330
0
100
AcDbProxyObject
 90
      499
 91
      555
 95
   983063
 70
     0
 93
      314
310
00014080509656461755477697374060B51153EC846500000000FC83D797C10000003F20F5E5D07E
330
152AD
 94
        0
1001
ACAD
1000
AcRTDxfName
1000
ACIMDBLSTATICVAR
1000
AcRTDxfName
1000
ACIMDBLSTATICVAR
  0
ACAD_PROXY_OBJECT
  5
1623D
330
0
100
AcDbProxyObject
 90
      499
 91
      556
 95
   983063
 70
     0
 93
      286
310
000140C050A656467654F75747075740144941BDB1E5B1A5B994817D41BDB1E5B1A5B995
330
152AD
 94
        0
1001
ACAD
1000
AcRTDxfName
1000
ACIMSTRSTATICVAR
1000
AcRTDxfName
1000
ACIMSTRSTATICVAR
  0
ACAD_PROXY_OBJECT
  5
1623E
330
0
100
AcDbProxyObject
 90
      499
 91
      557
 95
   983063
 70
     0
 93
      154
310
0001404050B6564697450726576696577406406C
330
152AD
 94
        0
1001
ACAD
1000
AcRTDxfName
1000
ACIMINTSTATICVAR
1000
AcRTDxfName
1000
ACIMINTSTATICVAR
  0
ACAD_PROXY_OBJECT
  5
1623F
330
0
100
AcDbProxyObject
 90
      499
 91
      557
 95
   983063
 70
     0
 93
      170
310
0001404050A666C6F77556C696E657342A3A00C00025
330
152AD
 94
        0
1001
ACAD
1000
AcRTDxfName
1000
ACIMINTSTATICVAR
1000
AcRTDxfName
1000
ACIMINTSTATICVAR
  0
ACAD_PROXY_OBJECT
  5
16240
330
0
100
AcDbProxyObject
 90
      499
 91
      557
 95
   983063
 70
     0
 93
      170
310
0001404050A666C6F77566C696E657342A3A00C00025
330
152AD
 94
        0
1001
ACAD
1000
AcRTDxfName
1000
ACIMINTSTATICVAR
1000
AcRTDxfName
1000
ACIMINTSTATICVAR
  0
ACAD_PROXY_OBJECT
  5
16241
330
0
100
AcDbProxyObject
 90
      499
 91
      555
 95
   983063
 70
     0
 93
      322
310
0001408050A666C7366456E645261640000000000003C2FC000000000000F0BF0000003F20F5E5D05B
330
152AD
 94
        0
1001
ACAD
1000
AcRTDxfName
1000
ACIMDBLSTATICVAR
1000
AcRTDxfName
1000
ACIMDBLSTATICVAR
  0
ACAD_PROXY_OBJECT
  5
16242
330
0
100
AcDbProxyObject
 90
      499
 91
      556
 95
   983063
 70
     0
 93
      238
310
000140C05086A6E33644D6F6465014393585B9D585B0817D3585B9D585B0
330
152AD
 94
        0
1001
ACAD
1000
AcRTDxfName
1000
ACIMSTRSTATICVAR
1000
AcRTDxfName
1000
ACIMSTRSTATICVAR
  0
ACAD_PROXY_OBJECT
  5
16243
330
0
100
AcDbProxyObject
 90
      499
 91
      556
 95
   983063
 70
     0
 93
      286
310
000140C050A6A6E33644F75747075740144941BDB1E5B1A5B994817D41BDB1E5B1A5B994
330
152AD
 94
        0
1001
ACAD
1000
AcRTDxfName
1000
ACIMSTRSTATICVAR
1000
AcRTDxfName
1000
ACIMSTRSTATICVAR
  0
ACAD_PROXY_OBJECT
  5
16244
330
0
100
AcDbProxyObject
 90
      499
 91
      555
 95
   983063
 70
     0
 93
      306
310
000140805086C656E675065726300000000002016D002D431CEBE2361A3F0000003F20F5E5D065
330
152AD
 94
        0
1001
ACAD
1000
AcRTDxfName
1000
ACIMDBLSTATICVAR
1000
AcRTDxfName
1000
ACIMDBLSTATICVAR
  0
ACAD_PROXY_OBJECT
  5
16245
330
0
100
AcDbProxyObject
 90
      499
 91
      555
 95
   983063
 70
     0
 93
      266
310
0001408050B6D61737344656E7369747942D431CEBE2361A3F0000003F20F5E5D065
330
152AD
 94
        0
1001
ACAD
1000
AcRTDxfName
1000
ACIMDBLSTATICVAR
1000
AcRTDxfName
1000
ACIMDBLSTATICVAR
  0
ACAD_PROXY_OBJECT
  5
16246
330
0
100
AcDbProxyObject
 90
      499
 91
      555
 95
   983063
 70
     0
 93
      186
310
000140805096D617373546869636BA0000003F20F5E5D043
330
152AD
 94
        0
1001
ACAD
1000
AcRTDxfName
1000
ACIMDBLSTATICVAR
1000
AcRTDxfName
1000
ACIMDBLSTATICVAR
  0
ACAD_PROXY_OBJECT
  5
16247
330
0
100
AcDbProxyObject
 90
      499
 91
      556
 95
   983063
 70
     0
 93
      222
310
000140C05086D61737354797065014314DA195B1B0817D4DA195B1B0
330
152AD
 94
        0
1001
ACAD
1000
AcRTDxfName
1000
ACIMSTRSTATICVAR
1000
AcRTDxfName
1000
ACIMSTRSTATICVAR
  0
ACAD_PROXY_OBJECT
  5
16248
330
0
100
AcDbProxyObject
 90
      499
 91
      555
 95
   983063
 70
     0
 93
      242
310
000140805086F667366446973744000000FC83D797C10000003F20F5E5D040
330
152AD
 94
        0
1001
ACAD
1000
AcRTDxfName
1000
ACIMDBLSTATICVAR
1000
AcRTDxfName
1000
ACIMDBLSTATICVAR
  0
ACAD_PROXY_OBJECT
  5
16249
330
0
100
AcDbProxyObject
 90
      499
 91
      555
 95
   983063
 70
     0
 93
      258
310
0001408050A7072696D52616469757342D431CEBE2361A3F0000003F20F5E5D050
330
152AD
 94
        0
1001
ACAD
1000
AcRTDxfName
1000
ACIMDBLSTATICVAR
1000
AcRTDxfName
1000
ACIMDBLSTATICVAR
  0
ACAD_PROXY_OBJECT
  5
1624A
330
0
100
AcDbProxyObject
 90
      499
 91
      555
 95
   983063
 70
     0
 93
      194
310
0001408050A7072696D546F70526164A0000003F20F5E5D040
330
152AD
 94
        0
1001
ACAD
1000
AcRTDxfName
1000
ACIMDBLSTATICVAR
1000
AcRTDxfName
1000
ACIMDBLSTATICVAR
  0
ACAD_PROXY_OBJECT
  5
1624B
330
0
100
AcDbProxyObject
 90
      499
 91
      555
 95
   983063
 70
     0
 93
      266
310
0001408050B7072696D5475626552616442D431CEBE2361A3F0000003F20F5E5D065
330
152AD
 94
        0
1001
ACAD
1000
AcRTDxfName
1000
ACIMDBLSTATICVAR
1000
AcRTDxfName
1000
ACIMDBLSTATICVAR
  0
ACAD_PROXY_OBJECT
  5
1624C
330
0
100
AcDbProxyObject
 90
      499
 91
      555
 95
   983063
 70
     0
 93
      258
310
0001408050A7072696D4865696768744000000FC83D797C10000003F20F5E5D040
330
152AD
 94
        0
1001
ACAD
1000
AcRTDxfName
1000
ACIMDBLSTATICVAR
1000
AcRTDxfName
1000
ACIMDBLSTATICVAR
  0
ACAD_PROXY_OBJECT
  5
1624D
330
0
100
AcDbProxyObject
 90
      499
 91
      555
 95
   983063
 70
     0
 93
      250
310
000140805097072696D5374416E678182D4454FB2119C0060B51153EC8465025
330
152AD
 94
        0
1001
ACAD
1000
AcRTDxfName
1000
ACIMDBLSTATICVAR
1000
AcRTDxfName
1000
ACIMDBLSTATICVAR
  0
ACAD_PROXY_OBJECT
  5
1624E
330
0
100
AcDbProxyObject
 90
      499
 91
      555
 95
   983063
 70
     0
 93
      322
310
0001408050A7072696D456E64416E67060B51153EC846500182D4454FB2119C0060B51153EC8465000
330
152AD
 94
        0
1001
ACAD
1000
AcRTDxfName
1000
ACIMDBLSTATICVAR
1000
AcRTDxfName
1000
ACIMDBLSTATICVAR
  0
ACAD_PROXY_OBJECT
  5
1624F
330
0
100
AcDbProxyObject
 90
      499
 91
      555
 95
   983063
 70
     0
 93
      242
310
000140805087265765374416E678182D4454FB2119C0060B51153EC8465010
330
152AD
 94
        0
1001
ACAD
1000
AcRTDxfName
1000
ACIMDBLSTATICVAR
1000
AcRTDxfName
1000
ACIMDBLSTATICVAR
  0
ACAD_PROXY_OBJECT
  5
16250
330
0
100
AcDbProxyObject
 90
      499
 91
      555
 95
   983063
 70
     0
 93
      314
310
00014080509726576456E64416E67060B51153EC846500182D4454FB2119C0060B51153EC8465010
330
152AD
 94
        0
1001
ACAD
1000
AcRTDxfName
1000
ACIMDBLSTATICVAR
1000
AcRTDxfName
1000
ACIMDBLSTATICVAR
  0
ACAD_PROXY_OBJECT
  5
16251
330
0
100
AcDbProxyObject
 90
      499
 91
      557
 95
   983063
 70
     0
 93
      194
310
0001404050C7266736655706174636865734290139C0C00011
330
152AD
 94
        0
1001
ACAD
1000
AcRTDxfName
1000
ACIMINTSTATICVAR
1000
AcRTDxfName
1000
ACIMINTSTATICVAR
  0
ACAD_PROXY_OBJECT
  5
16252
330
0
100
AcDbProxyObject
 90
      499
 91
      557
 95
   983063
 70
     0
 93
      194
310
0001404050C7266736656706174636865734290139C0C0002D
330
152AD
 94
        0
1001
ACAD
1000
AcRTDxfName
1000
ACIMINTSTATICVAR
1000
AcRTDxfName
1000
ACIMINTSTATICVAR
  0
ACAD_PROXY_OBJECT
  5
16253
330
0
100
AcDbProxyObject
 90
      499
 91
      556
 95
   983063
 70
     0
 93
      238
310
000140C0508747562654D6F6465014393585B9D585B0817D3585B9D585B0
330
152AD
 94
        0
1001
ACAD
1000
AcRTDxfName
1000
ACIMSTRSTATICVAR
1000
AcRTDxfName
1000
ACIMSTRSTATICVAR
  0
ACAD_PROXY_OBJECT
  5
16254
330
0
100
AcDbProxyObject
 90
      499
 91
      555
 95
   983063
 70
     0
 93
      274
310
0001408050C747562654469616D6574657242D431CEBE2361A3F0000003F20F5E5D055
330
152AD
 94
        0
1001
ACAD
1000
AcRTDxfName
1000
ACIMDBLSTATICVAR
1000
AcRTDxfName
1000
ACIMDBLSTATICVAR
  0
ACAD_PROXY_OBJECT
  5
16255
330
0
100
AcDbProxyObject
 90
      499
 91
      557
 95
   983063
 70
     0
 93
      130
310
00014040509696E746572506F6C79A4075
330
152AD
 94
        0
1001
ACAD
1000
AcRTDxfName
1000
ACIMINTSTATICVAR
1000
AcRTDxfName
1000
ACIMINTSTATICVAR
  0
ACAD_PROXY_OBJECT
  5
16256
330
0
100
AcDbProxyObject
 90
      499
 91
      557
 95
   983063
 70
     0
 93
      162
310
0001404050D696E746572417567506F696E74A405C
330
152AD
 94
        0
1001
ACAD
1000
AcRTDxfName
1000
ACIMINTSTATICVAR
1000
AcRTDxfName
1000
ACIMINTSTATICVAR
  0
ACAD_PROXY_OBJECT
  5
16257
330
0
100
AcDbProxyObject
 90
      499
 91
      556
 95
   983063
 70
     0
 93
      214
310
000140C0509696E7465727472696D0142909BDD1A0817D09BDD1A1
330
152AD
 94
        0
1001
ACAD
1000
AcRTDxfName
1000
ACIMSTRSTATICVAR
1000
AcRTDxfName
1000
ACIMSTRSTATICVAR
  0
ACAD_PROXY_OBJECT
  5
16258
330
0
100
AcDbProxyObject
 90
      499
 91
      556
 95
   983063
 70
     0
 93
      214
310
000140C0509696E746572747970650142951C9A5B4817D51C9A5B4
330
152AD
 94
        0
1001
ACAD
1000
AcRTDxfName
1000
ACIMSTRSTATICVAR
1000
AcRTDxfName
1000
ACIMSTRSTATICVAR
  0
ACAD_PROXY_OBJECT
  5
16259
330
0
100
AcDbProxyObject
 90
      499
 91
      557
 95
   983063
 70
     0
 93
      146
310
0001404050A636F726E65727472696D406407D
330
152AD
 94
        0
1001
ACAD
1000
AcRTDxfName
1000
ACIMINTSTATICVAR
1000
AcRTDxfName
1000
ACIMINTSTATICVAR
  0
ACAD_PROXY_OBJECT
  5
1625A
330
0
100
AcDbProxyObject
 90
      499
 91
      557
 95
   983063
 70
     0
 93
      130
310
000140405086F6673666B6565704064069
330
152AD
 94
        0
1001
ACAD
1000
AcRTDxfName
1000
ACIMINTSTATICVAR
1000
AcRTDxfName
1000
ACIMINTSTATICVAR
  0
ACAD_PROXY_OBJECT
  5
1625B
330
0
100
AcDbProxyObject
 90
      499
 91
      557
 95
   983063
 70
     0
 93
      146
310
0001404050A70726F6A4F757470757440A40FD
330
152AD
 94
        0
1001
ACAD
1000
AcRTDxfName
1000
ACIMINTSTATICVAR
1000
AcRTDxfName
1000
ACIMINTSTATICVAR
  0
ACAD_PROXY_OBJECT
  5
1625C
330
0
100
AcDbProxyObject
 90
      499
 91
      556
 95
   983063
 70
     0
 93
      246
310
000140C050D70726F6A446972656374696F6E01429D92595DC817DD92595DC
330
152AD
 94
        0
1001
ACAD
1000
AcRTDxfName
1000
ACIMSTRSTATICVAR
1000
AcRTDxfName
1000
ACIMSTRSTATICVAR
  0
ACAD_PROXY_OBJECT
  5
1625D
330
0
100
AcDbProxyObject
 90
      499
 91
      557
 95
   983063
 70
     0
 93
      130
310
0001404050870726F6A4B656570406404A
330
152AD
 94
        0
1001
ACAD
1000
AcRTDxfName
1000
ACIMINTSTATICVAR
1000
AcRTDxfName
1000
ACIMINTSTATICVAR
  0
ACAD_PROXY_OBJECT
  5
1625E
330
0
100
AcDbProxyObject
 90
      499
 91
      556
 95
   983063
 70
     0
 93
      278
310
000140C050B70726F6A53706163696E67014413DC1D1A5B585B0817D3DC1D1A5B585B1
330
152AD
 94
        0
1001
ACAD
1000
AcRTDxfName
1000
ACIMSTRSTATICVAR
1000
AcRTDxfName
1000
ACIMSTRSTATICVAR
  0
ACAD_PROXY_OBJECT
  5
1625F
330
0
100
AcDbProxyObject
 90
      499
 91
      555
 95
   983063
 70
     0
 93
      250
310
0001408050970726F6A54617065728182D4454FB21F9BF060B51153EC87E4FE5
330
152AD
 94
        0
1001
ACAD
1000
AcRTDxfName
1000
ACIMDBLSTATICVAR
1000
AcRTDxfName
1000
ACIMDBLSTATICVAR
  0
ACAD_PROXY_OBJECT
  5
16260
330
0
100
AcDbProxyObject
 90
      499
 91
      557
 95
   983063
 70
     0
 93
      130
310
00014040508647261674B6565704064070
330
152AD
 94
        0
1001
ACAD
1000
AcRTDxfName
1000
ACIMINTSTATICVAR
1000
AcRTDxfName
1000
ACIMINTSTATICVAR
  0
ACAD_PROXY_OBJECT
  5
16261
330
0
100
AcDbProxyObject
 90
      499
 91
      556
 95
   983063
 70
     0
 93
      294
310
000140C050F647261674F7269656E746174696F6E0143939BDC9B585B0817D39BDC9B585B0
330
152AD
 94
        0
1001
ACAD
1000
AcRTDxfName
1000
ACIMSTRSTATICVAR
1000
AcRTDxfName
1000
ACIMSTRSTATICVAR
  0
ACAD_PROXY_OBJECT
  5
16262
330
0
100
AcDbProxyObject
 90
      499
 91
      556
 95
   983063
 70
     0
 93
      270
310
000140C050E647261675472616E736974696F6E01431CD0D85B194817DCD0D85B195
330
152AD
 94
        0
1001
ACAD
1000
AcRTDxfName
1000
ACIMSTRSTATICVAR
1000
AcRTDxfName
1000
ACIMSTRSTATICVAR
  0
ACAD_PROXY_OBJECT
  5
16263
330
0
100
AcDbProxyObject
 90
      499
 91
      556
 95
   983063
 70
     0
 93
      302
310
000140C051061646A757374436F6E74696E75697479014394DB5BDBDD1A0817D4DB5BDBDD1A0
330
152AD
 94
        0
1001
ACAD
1000
AcRTDxfName
1000
ACIMSTRSTATICVAR
1000
AcRTDxfName
1000
ACIMSTRSTATICVAR
  0
ACAD_PROXY_OBJECT
  5
16264
330
0
100
AcDbProxyObject
 90
      499
 91
      557
 95
   983063
 70
     0
 93
      138
310
0001404050A61646A7573744B656570A4056
330
152AD
 94
        0
1001
ACAD
1000
AcRTDxfName
1000
ACIMINTSTATICVAR
1000
AcRTDxfName
1000
ACIMINTSTATICVAR
  0
ACAD_PROXY_OBJECT
  5
16265
330
0
100
AcDbProxyObject
 90
      499
 91
      555
 95
   983063
 70
     0
 93
      250
310
0001408050972756C65576964746842D431CEBE2361A3F0000003F20F5E5D07D
330
152AD
 94
        0
1001
ACAD
1000
AcRTDxfName
1000
ACIMDBLSTATICVAR
1000
AcRTDxfName
1000
ACIMDBLSTATICVAR
  0
ACAD_PROXY_OBJECT
  5
16266
330
0
100
AcDbProxyObject
 90
      499
 91
      555
 95
   983063
 70
     0
 93
      274
310
0001408050C616E616C797A65447261667421D139D28615ED8FE060B51153EC8425031
330
152AD
 94
        0
1001
ACAD
1000
AcRTDxfName
1000
ACIMDBLSTATICVAR
1000
AcRTDxfName
1000
ACIMDBLSTATICVAR
  0
ACAD_PROXY_OBJECT
  5
16267
330
0
100
AcDbProxyObject
 90
      499
 91
      557
 95
   983063
 70
     0
 93
      210
310
0001404050F616E616C797A654E756D4C696E65734163FDFC0003F
330
152AD
 94
        0
1001
ACAD
1000
AcRTDxfName
1000
ACIMINTSTATICVAR
1000
AcRTDxfName
1000
ACIMINTSTATICVAR
  0
ACAD_PROXY_OBJECT
  5
16268
330
0
100
AcDbProxyObject
 90
      499
 91
      557
 95
   983063
 70
     0
 93
      202
310
00014040512616E616C797A65526F746174654C696E6573A407E
330
152AD
 94
        0
1001
ACAD
1000
AcRTDxfName
1000
ACIMINTSTATICVAR
1000
AcRTDxfName
1000
ACIMINTSTATICVAR
  0
ACAD_PROXY_OBJECT
  5
16269
330
0
100
AcDbProxyObject
 90
      499
 91
      557
 95
   983063
 70
     0
 93
      210
310
00014040513616E616C797A65446973706C61794C696E6573A407F
330
152AD
 94
        0
1001
ACAD
1000
AcRTDxfName
1000
ACIMINTSTATICVAR
1000
AcRTDxfName
1000
ACIMINTSTATICVAR
  0
ACAD_PROXY_OBJECT
  5
1626A
330
0
100
AcDbProxyObject
 90
      499
 91
      557
 95
   983063
 70
     0
 93
      258
310
00014040519616E616C797A655472616E736C7563656E7453757266616365A4042
330
152AD
 94
        0
1001
ACAD
1000
AcRTDxfName
1000
ACIMINTSTATICVAR
1000
AcRTDxfName
1000
ACIMINTSTATICVAR
  0
ACAD_PROXY_OBJECT
  5
16274
330
0
100
AcDbProxyObject
 90
      499
 91
      563
 95
   983063
 70
     0
 93
      698
310
0001000000009AA6A9AA4051E547565204170722031352030383A30353A303120323030332028555443290141CD8B8CCB8C0B8C80518547565204170722031352030393A32363A353920323030330141CD8B8CCB8C0B8C80
330
152AD
330
16275
330
16276
330
16278
330
0
 94
        0
1001
ACAD
1000
AcRTDxfName
1000
ADAPPL
1000
AcRTDxfName
1000
ADAPPL
  0
ACAD_PROXY_OBJECT
  5
16275
330
0
100
AcDbProxyObject
 90
      499
 91
      564
 95
   983063
 70
     0
 93
       70
310
0001AAA80820000001
330
152AD
330
16275
330
16275
 94
        0
1001
ACAD
1000
AcRTDxfName
1000
DEPMGR
1000
AcRTDxfName
1000
DEPMGR
  0
ACAD_PROXY_OBJECT
  5
16276
330
0
100
AcDbProxyObject
 90
      499
 91
      565
 95
   983063
 70
     0
 93
       48
310
000100000000B0
330
152AD
330
0
330
16277
330
0
330
0
 94
        0
1001
ACAD
1000
AcRTDxfName
1000
PARAMMGR
1000
AcRTDxfName
1000
PARAMMGR
  0
ACAD_PROXY_OBJECT
  5
16277
330
0
100
AcDbProxyObject
 90
      499
 91
      566
 95
   983063
 70
     0
 93
       40
310
000100AAAA7E
330
152AD
330
0
 94
        0
1001
ACAD
1000
AcRTDxfName
1000
PARAMSCOPE
1000
AcRTDxfName
1000
PARAMSCOPE
  0
ACAD_PROXY_OBJECT
  5
16279
330
0
100
AcDbProxyObject
 90
      499
 91
      511
 95
   983063
 70
     0
 93
      124
310
00010142905350D3D39114D414D69050
330
152AD
 94
        0
1001
ACAD
1000
AcRTDxfName
1000
ACIMINTSYSVAR
1000
AcRTDxfName
1000
ACIMINTSYSVAR
  0
ACAD_PROXY_OBJECT
  5
1627A
330
0
100
AcDbProxyObject
 90
      499
 91
      511
 95
   983063
 70
     0
 93
      124
310
000101429053549553115353D1115010
330
152AD
 94
        0
1001
ACAD
1000
AcRTDxfName
1000
ACIMINTSYSVAR
1000
AcRTDxfName
1000
ACIMINTSYSVAR
  0
ACAD_PROXY_OBJECT
  5
1627B
330
0
100
AcDbProxyObject
 90
      499
 91
      511
 95
   983063
 70
     0
 93
      108
310
00010142105354D2D353D1115016
330
152AD
 94
        0
1001
ACAD
1000
AcRTDxfName
1000
ACIMINTSYSVAR
1000
AcRTDxfName
1000
ACIMINTSYSVAR
  0
ACAD_PROXY_OBJECT
  5
1627C
330
0
100
AcDbProxyObject
 90
      499
 91
      511
 95
   983063
 70
     0
 93
      140
310
000101435053511253511254D41353D11160
330
152AD
 94
        0
1001
ACAD
1000
AcRTDxfName
1000
ACIMINTSYSVAR
1000
AcRTDxfName
1000
ACIMINTSYSVAR
  0
ACAD_PROXY_OBJECT
  5
1627D
330
0
100
AcDbProxyObject
 90
      499
 91
      510
 95
   983063
 70
     0
 93
      180
310
00010142905354D2D05391D513D3000000000000010402
330
152AD
 94
        0
1001
ACAD
1000
AcRTDxfName
1000
ACIMREALSYSVAR
1000
AcRTDxfName
1000
ACIMREALSYSVAR
  0
ACAD_PROXY_OBJECT
  5
1627E
330
0
100
AcDbProxyObject
 90
      499
 91
      525
 95
   983063
 70
     0
 93
      164
310
00010142505354D2D4D516531140505434F4E542A0
330
152AD
 94
        0
1001
ACAD
1000
AcRTDxfName
1000
ACIMSTRSYSVAR
1000
AcRTDxfName
1000
ACIMSTRSYSVAR
  0
ACAD_PROXY_OBJECT
  5
1627F
330
0
100
AcDbProxyObject
 90
      499
 91
      511
 95
   983063
 70
     0
 93
      108
310
00010142105350D3511112535010
330
152AD
 94
        0
1001
ACAD
1000
AcRTDxfName
1000
ACIMINTSYSVAR
1000
AcRTDxfName
1000
ACIMINTSYSVAR
  0
ACAD_PROXY_OBJECT
  5
16280
330
0
100
AcDbProxyObject
 90
      499
 91
      511
 95
   983063
 70
     0
 93
      108
310
00010142105350D3D35414D59010
330
152AD
 94
        0
1001
ACAD
1000
AcRTDxfName
1000
ACIMINTSYSVAR
1000
AcRTDxfName
1000
ACIMINTSYSVAR
  0
ACAD_PROXY_OBJECT
  5
16281
330
0
100
AcDbProxyObject
 90
      499
 91
      525
 95
   983063
 70
     0
 93
      164
310
0001014290535410549514D4119600504504152540
330
152AD
 94
        0
1001
ACAD
1000
AcRTDxfName
1000
ACIMSTRSYSVAR
1000
AcRTDxfName
1000
ACIMSTRSYSVAR
  0
ACAD_PROXY_OBJECT
  5
16282
330
0
100
AcDbProxyObject
 90
      499
 91
      525
 95
   983063
 70
     0
 93
      220
310
0001014350535513D3D31093D11654119600508544F4F4C424F44590
330
152AD
 94
        0
1001
ACAD
1000
AcRTDxfName
1000
ACIMSTRSYSVAR
1000
AcRTDxfName
1000
ACIMSTRSYSVAR
  0
ACAD_PROXY_OBJECT
  5
16283
330
0
100
AcDbProxyObject
 90
      499
 91
      511
 95
   983063
 70
     0
 93
      116
310
000101425053511254D410D3D39010
330
152AD
 94
        0
1001
ACAD
1000
AcRTDxfName
1000
ACIMINTSYSVAR
1000
AcRTDxfName
1000
ACIMINTSYSVAR
  0
ACAD_PROXY_OBJECT
  5
16284
330
0
100
AcDbProxyObject
 90
      499
 91
      511
 95
   983063
 70
     0
 93
      108
310
00010142105350D3D39114D41016
330
152AD
 94
        0
1001
ACAD
1000
AcRTDxfName
1000
ACIMINTSYSVAR
1000
AcRTDxfName
1000
ACIMINTSYSVAR
  0
ACAD_PROXY_OBJECT
  5
16285
330
0
100
AcDbProxyObject
 90
      499
 91
      511
 95
   983063
 70
     0
 93
      124
310
0001014290535490511114D414D69190
330
152AD
 94
        0
1001
ACAD
1000
AcRTDxfName
1000
ACIMINTSYSVAR
1000
AcRTDxfName
1000
ACIMINTSYSVAR
  0
ACAD_PROXY_OBJECT
  5
1628B
330
0
100
AcDbProxyObject
 90
      499
 91
      511
 95
   983063
 70
     0
 93
      132
310
00010142D05050555513D4D3D315915010
330
152AD
 94
        0
1001
ACAD
1000
AcRTDxfName
1000
ACIMINTSYSVAR
1000
AcRTDxfName
1000
ACIMINTSYSVAR
  0
ACAD_PROXY_OBJECT
  5
1628C
330
0
100
AcDbProxyObject
 90
      499
 91
      511
 95
   983063
 70
     0
 93
      156
310
00010143905050555513D054D4D1535093115015
330
152AD
 94
        0
1001
ACAD
1000
AcRTDxfName
1000
ACIMINTSYSVAR
1000
AcRTDxfName
1000
ACIMINTSYSVAR
  0
ACAD_PROXY_OBJECT
  5
1628D
330
0
100
AcDbProxyObject
 90
      499
 91
      511
 95
   983063
 70
     0
 93
      148
310
00010143505055925155D49154D513D4915019
330
152AD
 94
        0
1001
ACAD
1000
AcRTDxfName
1000
ACIMINTSYSVAR
1000
AcRTDxfName
1000
ACIMINTSYSVAR
  0
ACAD_PROXY_OBJECT
  5
1628E
330
0
100
AcDbProxyObject
 90
      499
 91
      511
 95
   983063
 70
     0
 93
      124
310
00010142D050525394D15495105094E0
330
152AD
 94
        0
1001
ACAD
1000
AcRTDxfName
1000
ACIMINTSYSVAR
1000
AcRTDxfName
1000
ACIMINTSYSVAR
  0
ACAD_PROXY_OBJECT
  5
1628F
330
0
100
AcDbProxyObject
 90
      499
 91
      511
 95
   983063
 70
     0
 93
      148
310
00010143505054D0D153915554111055115019
330
152AD
 94
        0
1001
ACAD
1000
AcRTDxfName
1000
ACIMINTSYSVAR
1000
AcRTDxfName
1000
ACIMINTSYSVAR
  0
ACAD_PROXY_OBJECT
  5
16290
330
0
100
AcDbProxyObject
 90
      499
 91
      525
 95
   983063
 70
     0
 93
      172
310
00010143105054D5509054D4D3541196005035355424
330
152AD
 94
        0
1001
ACAD
1000
AcRTDxfName
1000
ACIMSTRSYSVAR
1000
AcRTDxfName
1000
ACIMSTRSYSVAR
  0
ACAD_PROXY_OBJECT
  5
16291
330
0
100
AcDbProxyObject
 90
      499
 91
      525
 95
   983063
 70
     0
 93
      172
310
00010142905054D0D15391541196005055343454E458
330
152AD
 94
        0
1001
ACAD
1000
AcRTDxfName
1000
ACIMSTRSYSVAR
1000
AcRTDxfName
1000
ACIMSTRSYSVAR
  0
ACAD_PROXY_OBJECT
  5
16292
330
0
100
AcDbProxyObject
 90
      499
 91
      511
 95
   983063
 70
     0
 93
      148
310
00010143505350555513D313D0D2D4D0D39015
330
152AD
 94
        0
1001
ACAD
1000
AcRTDxfName
1000
ACIMINTSYSVAR
1000
AcRTDxfName
1000
ACIMINTSYSVAR
  0
ACAD_PROXY_OBJECT
  5
16297
330
0
100
AcDbProxyObject
 90
      499
 91
      572
 95
   983063
 70
     0
 93
       32
310
0001000098
330
152AD
340
16294
330
16299
330
16294
 94
        0
1001
ACAD
1000
AcRTDxfName
1000
ACAMGRCOMPDEF
1000
AcRTDxfName
1000
ACAMGRCOMPDEF
  0
ACAD_PROXY_OBJECT
  5
16298
330
0
100
AcDbProxyObject
 90
      499
 91
      573
 95
   983063
 70
     0
 93
       18
310
0001A4
330
152AD
 94
        0
1001
ACAD
1000
AcRTDxfName
1000
ACCMCONTEXT
1000
AcRTDxfName
1000
ACCMCONTEXT
  0
ACAD_PROXY_OBJECT
  5
16299
330
0
100
AcDbProxyObject
 90
      499
 91
      574
 95
   983063
 70
     0
 93
      159
310
00010142D59254D51054C810D0550B9050055400
330
152AD
330
16297
330
16298
 94
        0
1001
ACAD
1000
AcRTDxfName
1000
ACAMCOMPDEF
1000
AcRTDxfName
1000
ACAMCOMPDEF
  0
ACAD_PROXY_OBJECT
  5
1629A
330
0
100
AcDbProxyObject
 90
      499
 91
      575
 95
   983063
 70
     0
 93
       40
310
000100AAAA7E
330
152AD
330
16299
 94
        0
1001
ACAD
1000
AcRTDxfName
1000
ACAMCOMPDEFMGR
1000
AcRTDxfName
1000
ACAMCOMPDEFMGR
  0
ACAD_PROXY_OBJECT
  5
1629B
330
0
100
AcDbProxyObject
 90
      499
 91
      576
 95
   983063
 70
     0
 93
      108
310
0001901422000000000000AAAAA5
330
152AD
330
1629C
330
1629C
330
1629C
330
1629C
330
1629C
330
0
 94
        0
1001
ACAD
1000
AcRTDxfName
1000
AMCONTEXTMGR
1000
AcRTDxfName
1000
AMCONTEXTMGR
  0
ACAD_PROXY_OBJECT
  5
1629C
330
0
100
AcDbProxyObject
 90
      499
 91
      577
 95
   983063
 70
     0
 93
       51
310
00010000AAAA80
330
152AD
330
1629B
330
16299
 94
        0
1001
ACAD
1000
AcRTDxfName
1000
ACAMCONTEXTMODELER
1000
AcRTDxfName
1000
ACAMCONTEXTMODELER
  0
DICTIONARY
  5
152A7
102
{ACAD_REACTORS
330
152A6
102
}
330
152A6
100
AcDbDictionary
281
     1
  3
DWGSETTINGS
350
152A8
  3
TRANSSETTINGS
350
152A9
  0
ACAD_PROXY_OBJECT
  5
152C8
102
{ACAD_REACTORS
330
152A6
102
}
330
152A6
100
AcDbProxyObject
 90
      499
 91
      527
 95
   983063
 70
     0
 93
    12938
310
41102491013041105357CC1074CA404C504414D5F31439329013241105357CC9054CA404CD04414D5F33419199013441105357CD103466404D504414D5F3540D199013641105357CD90248E404DD04414D5F37411199013841105357CE101466404E504414D5F397F641102324141505357CC4C1074CA408D10505414D5F31
310
3140D19902495041505357CC4C9074C902408C13905414D5F304E41D32902314E41505357CC5390E4CA408C93905414D5F324E41532902334E41505357CCD3906466408D13905414D5F344E40D19902354E41505357CD53903466408D93905414D5F364E40923902374E41505357CDD3904466408E13905414D5F384E40519
310
902394E41505357CE539FD90440CC9053906414D5F31304E41D3290334414E41905357CC4C5390346640D25413906414D5F31324E41D32409044B4C494E41505357D0D3101465094112539193D08414D5F50415245464111942D055241484D3541905357D093D49074C9094115925155D08414D5F56494557534051942D064
310
24548494E4441905357D253959FD90D415514905253105414D5F545240D194250348494441905357D212511074650940D59254D06414D5F56495341D324250650415244494D42505357D410549112535034650941949151911253509414D5F52454644494D4111942553411092139590139CFFFFFFFF415092139594D06424
310
548494E44CFFFFFFFF411093D48C9055241484D3540519411093D48CD055241484D3540923411093D48D5055241484D35CFFFFFFFF4110D0530C90134CFFFFFFFF4110D0530CD0134409234110D0530D5013441D324110D0530DD0134479464110D1539390137CFFFFFFFF4110D15395D0137CFFFFFFFF4110D312539044B4
310
C494ECFFFFFFFF4110D3D38C50130CFFFFFFFF4110D3D38C90131CFFFFFFFF4110D3D38CD0132CFFFFFFFF4110D3D38D10132CFFFFFFFF411111551050134CFFFFFFFF4111125051D0135CFFFFFFFF411112531250135CFFFFFFFF411112535410650415244494DCFFFFFFFF411112535490652454644494DCFFFFFFFF4111
310
91535390138CFFFFFFFF4151915354139013840CFFFFFFFF4151915354D41023441CFFFFFFFF4151915354D5102344140D1941519153559390132CFFFFFFFF4151915355951013240D194112105510D0138CFFFFFFFF411212511390133CFFFFFFFF4112125115D0133CFFFFFFFF411213125390134CFFFFFFFF411213D0D3
310
90137CFFFFFFFF411213D0D5D0137CFFFFFFFF4112539193D04494E464FCFFFFFFFF411311505110135CFFFFFFFF419397D0921395902394ECFFFFFFFF419397D0D3D38C502304ECFFFFFFFF419397D0D3D38C902314ECFFFFFFFF419397D0D3D38CD02324ECFFFFFFFF419397D0D3D38D102324ECFFFFFFFF419397D0D153
310
93902374ECFFFFFFFF419397D0D15395D02374ECFFFFFFFF419397D1125312502354ECFFFFFFFF419397D2105510D02384ECFFFFFFFF419397D2125113902334ECFFFFFFFF419397D2125115D02334ECFFFFFFFF419397D3115051102354ECFFFFFFFF419397D391D25410349504ECFFFFFFFF419397D412105390334414EC
310
FFFFFFFF419397D510D3D3902304ECFFFFFFFF419397D5121312502344ECFFFFFFFF419397D5131153902304ECFFFFFFFF419397D594131250332414ECFFFFFFFF411391D2541024950CFFFFFFFF411410530C9055241484D3540519411410530CD055241484D3540923411410530D5055241484D35CFFFFFFFF4114121053
310
9023441CFFFFFFFF411413D4D390135CFFFFFFFF411490D1D390137CFFFFFFFF411490D1D5D0137CFFFFFFFF4114D09492D0134CFFFFFFFF4114D150D510134CFFFFFFFF4114D6508CD013540923411354D6535013540923411510D3D390130CFFFFFFFF411512131250134CFFFFFFFF411512550C9055241484D354051941
310
1512550CD055241484D3540923411512550D5055241484D35CFFFFFFFF411513115390130CFFFFFFFF415514905253105545241494CCFFFFFFFF411514931250134CFFFFFFFF411516150C5013640D19411516150C9013640D19411516150CD0136CFFFFFFFF411516150D5013641D32411516150DD0136479464115925155
310
D0456494557CFFFFFFFF4115915112103484944CFFFFFFFF4115915115903564953CFFFFFFFF41159413125023241CFFFFFFFF411692569050134CFFFFFFFFAA9FD404FE429014650248D0346504465054C906465074C90E4C91E519FDA4
340
16
340
16
340
16
340
152C9
340
16
340
16
340
16
340
152CA
340
16
340
16
340
152CA
340
152CB
340
16
340
16
340
16
340
16
340
152C9
340
16
340
16
340
16
340
152CA
340
16
340
16
340
152CA
340
152CB
340
16
340
152CC
340
16
340
16
340
16
340
16
340
16
340
152C9
340
16
340
16
340
16
340
15
340
15
340
15
340
15
340
15
340
15
340
15
340
15
340
15
340
152CD
340
15
340
15
340
15
340
15
340
15
340
15
340
15
340
15
340
15
340
15
340
15
340
15
340
15
340
16
340
15
340
15
340
15
340
15
340
152CE
340
15
340
15
340
152CD
340
15
340
15
340
15
340
15
340
15
340
15
340
15
340
15
340
152CD
340
15
340
15
340
15
340
152CE
340
15
340
15
340
15
340
15
340
15
340
15
340
15
340
15
340
15
340
15
340
15
340
15
340
15
340
15
340
152CD
340
15
340
15
340
15
340
15
340
15
340
15
340
15
340
15
340
15
340
15
340
15
340
15
340
15
340
15
340
15
340
15
340
15
340
15
340
15
340
15
340
15
340
15
340
152CF
 94
        0
1001
ACAD
1000
AcRTDxfName
1000
AMGOBJPROPCFG
1000
AcRTDxfName
1000
AMGOBJPROPCFG
  0
ACAD_PROXY_OBJECT
  5
152F7
102
{ACAD_REACTORS
330
152F2
102
}
330
152F2
100
AcDbProxyObject
 90
      499
 91
      543
 95
   983063
 70
     0
 93
      253
310
43D1444494D454E53494F4E2C414D44545F2A5F44494D404A9012A404A9012AC
 94
        0
1001
ACAD
1000
AcRTDxfName
1000
ACAMGFILTERDAT
1000
AcRTDxfName
1000
ACAMGFILTERDAT
  0
ACAD_PROXY_OBJECT
  5
152F6
102
{ACAD_REACTORS
330
152F2
102
}
330
152F2
100
AcDbProxyObject
 90
      499
 91
      543
 95
   983063
 70
     0
 93
      181
310
43D012A42D05357D191504B505357CA9012A404A9012AD
 94
        0
1001
ACAD
1000
AcRTDxfName
1000
ACAMGFILTERDAT
1000
AcRTDxfName
1000
ACAMGFILTERDAT
  0
ACAD_PROXY_OBJECT
  5
152F3
102
{ACAD_REACTORS
330
152F2
102
}
330
152F2
100
AcDbProxyObject
 90
      499
 91
      543
 95
   983063
 70
     0
 93
      133
310
43D054841544348404A9012A404A9012A8
 94
        0
1001
ACAD
1000
AcRTDxfName
1000
ACAMGFILTERDAT
1000
AcRTDxfName
1000
ACAMGFILTERDAT
  0
ACAD_PROXY_OBJECT
  5
152F4
102
{ACAD_REACTORS
330
152F2
102
}
330
152F2
100
AcDbProxyObject
 90
      499
 91
      543
 95
   983063
 70
     0
 93
      549
310
43D044C494E4549CE0B0E138B0A8B4E0B0A8B4E138B105357CE0B105357CE138B0A8B505357CE0B0A8B505357CE139012A404A910494E534552542C535444504152543244B
 94
        0
1001
ACAD
1000
AcRTDxfName
1000
ACAMGFILTERDAT
1000
AcRTDxfName
1000
ACAMGFILTERDAT
  0
ACAD_PROXY_OBJECT
  5
152F8
102
{ACAD_REACTORS
330
152F2
102
}
330
152F2
100
AcDbProxyObject
 90
      499
 91
      543
 95
   983063
 70
     0
 93
      181
310
43D0341524341105357CD5012A404C906494E534552545
 94
        0
1001
ACAD
1000
AcRTDxfName
1000
ACAMGFILTERDAT
1000
AcRTDxfName
1000
ACAMGFILTERDAT
  0
ACAD_PROXY_OBJECT
  5
152F5
102
{ACAD_REACTORS
330
152F2
102
}
330
152F2
100
AcDbProxyObject
 90
      499
 91
      543
 95
   983063
 70
     0
 93
     1053
310
43D7841434D46434652414D452C41434D444154554D5441524745542C41434D444154554D49442C41434D57454C4453594D2C41434D5355524653594D2C41434D4645415449442C41434D504152545245462C41434D42414C4C4F4F4E2C414D44544544474553594D2C414D47534352455743414C435441424C45404A9012A
310
404A9012A8
 94
        0
1001
ACAD
1000
AcRTDxfName
1000
ACAMGFILTERDAT
1000
AcRTDxfName
1000
ACAMGFILTERDAT
  0
XRECORD
  5
17911
102
{ACAD_REACTORS
330
17910
102
}
330
17910
100
AcDbXrecord
280
     1
330
0
330
0
330
0
330
0
  0
LAYER_INDEX
  5
16A41
102
{ACAD_REACTORS
330
16A40
102
}
330
16A40
100
AcDbIndex
 40
2453894.731666666
100
AcDbLayerIndex
  8
0
360
16A42
 90
        0
  8
Defpoints
360
16A4C
 90
        0
  8
INDUSA
360
16A4F
 90
      220
  0
DICTIONARY
  5
17DB1
330
1E
100
AcDbDictionary
280
     1
281
     1
  3
ACAD_XREC_ROUNDTRIP
360
17DB2
  0
DICTIONARY
  5
17DB5
330
26
100
AcDbDictionary
280
     1
281
     1
  3
ACAD_XREC_ROUNDTRIP
360
17DB6
  0
DICTIONARY
  5
17DB3
330
22
100
AcDbDictionary
280
     1
281
     1
  3
ACAD_XREC_ROUNDTRIP
360
17DB4
  0
ACAD_PROXY_OBJECT
  5
152C2
102
{ACAD_REACTORS
330
152C1
102
}
330
152C1
100
AcDbProxyObject
 90
      499
 91
      524
 95
   983063
 70
     0
 93
      139
310
057356C1D5C406406AA8FFFFFFFF0AE64051
330
1F
330
0
330
16299
 94
        0
1001
ACAD
1000
AcRTDxfName
1000
ACMDATAENTRYBLOCK
1000
AcRTDxfName
1000
ACMDATAENTRYBLOCK
  0
ACAD_PROXY_OBJECT
  5
152C7
102
{ACAD_REACTORS
330
152C6
102
}
330
152C6
100
AcDbProxyObject
 90
      499
 91
      526
 95
   983063
 70
     0
 93
     2211
310
5700000000000000C40D0349534F405901409020000000000000310322287A1682DAC8E88AC8CECAA6E8C8812028720B1B6A9BAB9332A32BC3A29BA3220480A1282C6DA8C868CA6E8C88120286A0B1B6ABB2B63234B733A9BA3220480A1082C6DA92C8A6E8C88120285A0B1B6A230BA3AB6A9BA3220480A1282C6DA849E9AA
310
6E8C8812028820B6B23A2232BA30B4B629BCB6A9BA3220480A2282DAC8E8A6CAC6E8D2DEDCA6F2DAA6E8C88120288A0B6B23A21B2B73A32B92634B732A9BA3220480A1682DAC8E89CDEE8CAA6E8C88120285A0B1A0B6B3A630BCA9BA3220480A1682C682DACE88D2DAA6E8C88120288A0B1A0B6B3A437B632A1B430B93A29B
310
A3220480A1A82C682DACEA8D2E8D8CAA6E8C8812032041
340
152D0
360
152D1
360
152D2
360
152D3
360
152D4
360
152D5
360
152D6
360
152D7
360
152D8
360
152D9
360
152DA
360
152DB
360
152E1
360
152E2
360
152EE
360
152EF
 94
        0
1001
ACAD
1000
AcRTDxfName
1000
ACMSTANDARDISO
1000
AcRTDxfName
1000
ACMSTANDARDISO
  0
ACAD_PROXY_OBJECT
  5
152A8
102
{ACAD_REACTORS
330
152A7
102
}
330
152A7
100
AcDbProxyObject
 90
      499
 91
      506
 95
   983063
 70
     0
 93
     2396
310
4050B44574753455454494E4753A1286829C8E82A4A482B282A106660F8686AF86C608321A2A720A723A0A849A1ABE1C983E18999AA0C868A9C889282940000000000000488083A1A2A72224A0A9A0A8418983E19183E199820E868A9C8892A6A894000000000000010808321A2A72622A7250000000000000122020C868A9
310
C9E8C8C940000000000000488084A1A624A720A92920ACA0A8418983E19183E19982108698929C8AA8B2A082A0AB098929C8A84A22BA3AAA9A1A0A622A50A0E9882A6A89E849482A02608426A0A5A2AB24A2ABA7E8120CA0A68682988A0C00800010652455649534941501304154D0D0531150540CC4E8C50954494D455354
310
414D504A0DDB172F13C1A734141D5915494D253D3905414C4D4B8C0C1107B44574753455454494E4753454E447D0
 94
        0
1001
ACAD
1000
AcRTDxfName
1000
AMGSETTINGSOBJ
1000
AcRTDxfName
1000
AMGSETTINGSOBJ
  0
ACAD_PROXY_OBJECT
  5
152A9
102
{ACAD_REACTORS
330
152A7
102
}
330
152A7
100
AcDbProxyObject
 90
      499
 91
      506
 95
   983063
 70
     0
 93
      852
310
4050D5452414E5353455454494E4753A2488A482AE929C8EA8A4829CA69882A8929E9C0C00800050D4F524947494E414C4C595F4F4E0600400008529A7AAA921A2A620A723A0A81A2A72AA12AAA0A48AA68AA4AC8A0C0080001107B44574753455454494E4753454E447D8
 94
        0
1001
ACAD
1000
AcRTDxfName
1000
AMGSETTINGSOBJ
1000
AcRTDxfName
1000
AMGSETTINGSOBJ
  0
IDBUFFER
  5
16A42
330
0
100
AcDbIdBuffer
  0
IDBUFFER
  5
16A4C
330
0
100
AcDbIdBuffer
  0
IDBUFFER
  5
16A4F
330
0
100
AcDbIdBuffer
330
1780B
330
1780D
330
1780E
330
17817
330
17818
330
17819
330
1781A
330
1781C
330
1781D
330
1781F
330
17823
330
17824
330
17825
330
17826
330
17827
330
17828
330
17829
330
1782A
330
1782B
330
1782D
330
1782E
330
1782F
330
17830
330
17831
330
17833
330
17834
330
17835
330
17836
330
17837
330
17838
330
17839
330
1783A
330
1783B
330
1783C
330
1783F
330
17840
330
17841
330
17842
330
17843
330
17844
330
17846
330
17847
330
17848
330
17849
330
1784A
330
1784C
330
1784E
330
1784F
330
17852
330
17853
330
17854
330
17855
330
17856
330
17857
330
17858
330
17859
330
1785A
330
1785B
330
1785E
330
17862
330
17863
330
17864
330
17866
330
17867
330
17868
330
17869
330
1786B
330
1786D
330
1786E
330
1786F
330
17870
330
17871
330
17884
330
17885
330
17886
330
17887
330
17888
330
17889
330
1788C
330
1788D
330
1788E
330
1788F
330
17890
330
17891
330
17892
330
17893
330
17895
330
17896
330
17BD1
330
17BD2
330
17BD3
330
17BEA
330
17BF4
330
17BF6
330
17BF7
330
17BF8
330
17BF9
330
17BFA
330
17BFB
330
17BFC
330
17BFD
330
17BFE
330
17BFF
330
17C00
330
17C01
330
17C02
330
17C03
330
17C04
330
17C05
330
17C06
330
17C07
330
17C08
330
17C09
330
17C0C
330
17C0D
330
17C0E
330
17C0F
330
17C10
330
17C11
330
17C12
330
17C13
330
17C14
330
17C15
330
17C16
330
17C18
330
17C19
330
17C1A
330
17C1B
330
17C1D
330
17C1F
330
17C20
330
17C21
330
17C22
330
17C23
330
17C24
330
17C25
330
17C26
330
17C27
330
17C29
330
17C2A
330
17C2B
330
17C2C
330
17C2D
330
17C2F
330
17C30
330
17C31
330
17C32
330
17C33
330
17C34
330
17C36
330
17C38
330
17C39
330
17C3A
330
17C3B
330
17C3C
330
17C3D
330
17C3E
330
17C3F
330
17C40
330
17C41
330
17C42
330
17C50
330
17C51
330
17C52
330
17C53
330
17C54
330
17C55
330
17C56
330
17C57
330
17C58
330
17C59
330
17C5A
330
17C5B
330
17C5C
330
17C5D
330
17C5E
330
17C5F
330
17C61
330
17C62
330
17C64
330
17C65
330
17C66
330
17C67
330
17C68
330
17C6A
330
17C6B
330
17C6C
330
17C6D
330
17C6E
330
17C70
330
17C71
330
17C72
330
17C73
330
17C77
330
17C79
330
17C7C
330
17C7D
330
17C7E
330
17CF1
330
17CF5
330
17CF6
330
17D5D
330
17D5F
330
17D63
330
17D64
330
17D65
330
17D69
330
17D6C
330
17D6E
330
17D6F
330
17D73
330
17D74
330
17D76
330
17D77
330
17D78
330
17D79
330
17D8A
330
17D8B
330
17D8C
330
17D8D
  0
XRECORD
  5
17DB2
102
{ACAD_REACTORS
330
17DB1
102
}
330
17DB1
100
AcDbXrecord
280
     1
102
SHADEPLOT
 70
     0
102
SHADEPLOTRESLEVEL
 70
     2
102
SHADEPLOTCUSTOMDPI
 70
   300
  0
XRECORD
  5
17DB6
102
{ACAD_REACTORS
330
17DB5
102
}
330
17DB5
100
AcDbXrecord
280
     1
102
SHADEPLOT
 70
     0
102
SHADEPLOTRESLEVEL
 70
     2
102
SHADEPLOTCUSTOMDPI
 70
   300
  0
XRECORD
  5
17DB4
102
{ACAD_REACTORS
330
17DB3
102
}
330
17DB3
100
AcDbXrecord
280
     1
102
SHADEPLOT
 70
     0
102
SHADEPLOTRESLEVEL
 70
     2
102
SHADEPLOTCUSTOMDPI
 70
   300
  0
ACAD_PROXY_OBJECT
  5
152D1
330
152C7
100
AcDbProxyObject
 90
      499
 91
      528
 95
   983063
 70
     0
 93
       12
310
5710
 94
        0
1001
ACAD
1000
AcRTDxfName
1000
AMDTEDGESTANDARDISO
1000
AcRTDxfName
1000
AMDTEDGESTANDARDISO
  0
ACAD_PROXY_OBJECT
  5
152D2
330
152C7
100
AcDbProxyObject
 90
      499
 91
      529
 95
   983063
 70
     0
 93
       96
310
572A0E80A0280A0280A0280F00
 94
        0
1001
ACAD
1000
AcRTDxfName
1000
ACMSURFSTANDARDISO
1000
AcRTDxfName
1000
ACMSURFSTANDARDISO
  0
ACAD_PROXY_OBJECT
  5
152D3
330
152C7
100
AcDbProxyObject
 90
      499
 91
      530
 95
   983063
 70
     0
 93
      272
310
5710E4050140501405014050140501405014050140D01405012C0000000000000040D0
340
152DC
 94
        0
1001
ACAD
1000
AcRTDxfName
1000
ACMFCFSTANDARDISO
1000
AcRTDxfName
1000
ACMFCFSTANDARDISO
  0
ACAD_PROXY_OBJECT
  5
152D4
330
152C7
100
AcDbProxyObject
 90
      499
 91
      531
 95
   983063
 70
     0
 93
      496
310
5728666666666667A67E199999999999E99FD22405014050140501405014050140501405014050140501405014050140501405014050140501405014050101
340
152DD
 94
        0
1001
ACAD
1000
AcRTDxfName
1000
ACMWELDSTANDARDISO
1000
AcRTDxfName
1000
ACMWELDSTANDARDISO
  0
ACAD_PROXY_OBJECT
  5
152D5
330
152C7
100
AcDbProxyObject
 90
      499
 91
      532
 95
   983063
 70
     0
 93
       10
310
5728
 94
        0
1001
ACAD
1000
AcRTDxfName
1000
ACMIDSTANDARDISO
1000
AcRTDxfName
1000
ACMIDSTANDARDISO
  0
ACAD_PROXY_OBJECT
  5
152D6
330
152C7
100
AcDbProxyObject
 90
      499
 91
      533
 95
   983063
 70
     0
 93
      223
310
572290EA22A7D90F49F8000000000000108140000000000000420204
340
152DE
340
152DF
 94
        0
1001
ACAD
1000
AcRTDxfName
1000
ACMDATUMSTANDARDISO
1000
AcRTDxfName
1000
ACMDATUMSTANDARDISO
  0
ACAD_PROXY_OBJECT
  5
152D7
330
152C7
100
AcDbProxyObject
 90
      499
 91
      534
 95
   983063
 70
     0
 93
    12847
310
5710E411255115350141125D195B50140501406901000000000000091013347454E545241434F2C454E552C302C4974656D2C47454E54524154582C25732C2847454E4D53472067656E647767203232322940690120281A8AA2CA0281A8BA3CA028120280A0320200000000000012202648E8A9CA8A482869E588A9CAA5860
310
58A2E8F2588E8A9CA8A482A8B0584AE658508E8A9C9AA68E40CECADCC8EECE406464665280D202405044E414D45405044E616D654051C40640A80000000000004E404CD1D15395149050D3CB1153954B0C0B13985B594B11D15395149055160B095CCB0A11D1539354D1C819D95B991DD9C80C8C8D8A50190B3D424C4F434B
310
3A4E414D4540480A0A888AA686A480A1688CAE6C6E4D2E0E8D2DEDC80A3A80C81D0000000000100A2809D23A2A72A2920A1A79622A72A9618162232B9B1B934B83A34B7B71623A2A72A2920AA2C1612B9961423A2A726A9A39033B2B7323BB39019189B94A034809014214D51053911054911014214DD185B99185C9910147
310
501904A000000000000125013747454E545241434F2C454E552C302C5374616E646172642C47454E54524154582C25732C2847454E4D53472067656E64776720323138294069012028426A0AA22A924A0A62028426B0BA32B934B0B62028EA0320B40000000000001CA026E8E8A9CA8A482869E588A9CAA5860589AC2E8CAE
310
4D2C2D8588E8A9CA8A482A8B0584AE658508E8A9C9AA68E40CECADCC8EECE406464625280D202405044E4F5445405044E6F74654051D40641A80000000000003E404CD1D15395149050D3CB1153954B0C0B139BDD194B11D15395149055160B095CCB0A11D1539354D1C819D95B991DD9C80C8C8D4A501240480A0CAC8A9C8
310
89EA480A0CACCADCC8DEE480A3A80C83D00000000000007C809AA3A2A72A2920A1A79622A72A9618162B32B73237B91623A2A72A2920AA2C1612B9961423A2A726A9A39033B2B7323BB39019191A14A0248090141911154D0D48C9014351195CD8DC9A5C1D1A5BDB880C90147501908A000000000020145013B47454E54524
310
1434F2C454E552C302C4465736372697074696F6E20322C47454E54524154582C25732C2847454E4D53472067656E6477672033362940490120284A9AA20A72220A922192028529BA30B73230B93210192028EA03213400000000000024A02728E8A9CA8A482869E588A9CAA586058A6E8C2DCC8C2E4C84064588E8A9CA8A4
310
82A8B0584AE658508E8A9C9AA68E40CECADCC8EECE4064646052809202405094D4154455249414C324050A4D6174657269616C20324051D40642A8713D0AD7A37045404E11D15395149050D3CB1153954B0C0B13585D195C9A585B080C8B11D15395149055160B095CCB0A11D1539354D1C819D95B991DD9C80D0C0A501240
310
480A089A82A6A680A089AC2E6E680A3A80A0485A068100000000000007C809923A2A72A2920A1A79622A72A96181626B0B9B99623A2A72A2920AA2C1612B9961423A2A726A9A39033B2B7323BB3901A1914A024809014154149250D150141541C9A58D9501475014090C409020000000000000F9013347454E545241434F2C
310
454E552C302C50726963652C47454E54524154582C25732C2847454E4D53472067656E6477672034332940490120281A224A6A0285A6B2B0B9BAB932B6B2B73A2028EA028121A81A040000000000001F202728E8A9CA8A482869E588A9CAA5860589ACAC2E6EAE4CADACADCE8588E8A9CA8A482A8B0584AE658508E8A9C9AA
310
68E40CECADCC8EECE406868528092024050E445020000000000000510107004060000000000000F9000000000000003E4041CF4F125511534F9014060000000000000F9000000000000003E4041CF4F125511534F9014060000000000000D100000000000000344041CF4F125511534F9014060000000000000D1000000000
310
00000344041CF4F125511534F90140A4040000000000003E400000000000000F901073D3C4954454D3E405063D3C5154593E4050180000000000003E400000000000000F901073D3C4954454D3E406404000000000000003E400000000000000F902888000000000000208081A0881A068120480A032208521122080D21480
310
D211480A1485214852050000000000003C2FC000000000000F0BF4050241CCDCCCCCCCCCCEC3F3373333333333B0FC0000000000000C40480D0590140D04416406800000000000018808120480A026280A03
340
0
340
0
 94
        0
1001
ACAD
1000
AcRTDxfName
1000
ACMBOMSTANDARDISO
1000
AcRTDxfName
1000
ACMBOMSTANDARDISO
  0
ACAD_PROXY_OBJECT
  5
152D8
330
152C7
100
AcDbProxyObject
 90
      499
 91
      535
 95
   983063
 70
     0
 93
      864
310
5704000000000000144048CF4F11115510525317D3105091530F880A0F11115510525317D05094D4D0D053114F8A51141C9A9999999999B93F26A666666666724FC000000000000E03F4000000000000004000000000000005100000000000000244041C0000000000001440A8
340
16
340
152D0
 94
        0
1001
ACAD
1000
AcRTDxfName
1000
ACMDETAILSTANDARDISO
1000
AcRTDxfName
1000
ACMDETAILSTANDARDISO
  0
ACAD_PROXY_OBJECT
  5
152D9
330
152C7
100
AcDbProxyObject
 90
      499
 91
      536
 95
   983063
 70
     0
 93
      745
310
5700B00000000000002880959E9E29A2A1AA24A7A72FA620A122A62FA324A929AA1F169E29A2A1AA24A7A72FA620A122A62FA620A9AA1F00000000000004880FF41C88A0E0000000000001220000000000000028800000000000000A200B
340
19F1
340
152D0
 94
        0
1001
ACAD
1000
AcRTDxfName
1000
ACMSECTIONSTANDARDISO
1000
AcRTDxfName
1000
ACMSECTIONSTANDARDISO
  0
ACAD_PROXY_OBJECT
  5
152DA
330
152C7
100
AcDbProxyObject
 90
      499
 91
      537
 95
   983063
 70
     0
 93
      151
310
57280000000000000840A3D0A5723F0BD1F201
 94
        0
1001
ACAD
1000
AcRTDxfName
1000
ACMCENTERLINESTANDARDISO
1000
AcRTDxfName
1000
ACMCENTERLINESTANDARDISO
  0
ACAD_PROXY_OBJECT
  5
152DB
330
152C7
100
AcDbProxyObject
 90
      499
 91
      538
 95
   983063
 70
     0
 93
     8074
310
571084050B90142A405024050A54656D706C61746520314043A013D2525633C486F6C653A63746469613E2078203C486F6C653A637464657074683E20555C503C696628657175616C28486F6C653A7461707065642C223022292C22252563222C486F6C653A6E6F6D696E616C202220782022293E3C696628657175616C284
310
86F6C653A7461707065642C223022292C486F6C653A6469612C486F6C653A706974636864657363293E3C696628657175616C28486F6C653A7461707065642C223122292C22207820222C2222293E3C696628657175616C28486F6C653A7461707065642C223122292C486F6C653A74617064657074682C2222293E203C696
310
628657175616C28486F6C653A7465726D696E6174696F6E2C223022292C22202F20222C2222293E3C696628657175616C28486F6C653A7465726D696E6174696F6E2C223022292C486F6C653A64657074682C2222293E406405034050A54656D706C61746520314043B013D2525633C486F6C653A63746469613E2078203C4
310
86F6C653A6374616E676C653E2525645C503C696628657175616C28486F6C653A7461707065642C223022292C22252563222C486F6C653A6E6F6D696E616C202220782022293E3C696628657175616C28486F6C653A7461707065642C223022292C486F6C653A6469612C486F6C653A706974636864657363293E3C6966286
310
57175616C28486F6C653A7461707065642C223122292C22207820222C2222293E3C696628657175616C28486F6C653A7461707065642C223122292C486F6C653A74617064657074682C2222293E203C696628657175616C28486F6C653A7465726D696E6174696F6E2C223022292C22202F20222C2222293E3C69662865717
310
5616C28486F6C653A7465726D696E6174696F6E2C223022292C486F6C653A64657074682C2222293E406405014050A54656D706C617465203140416013D3C696628657175616C28486F6C653A7461707065642C223022292C22252563222C486F6C653A6E6F6D696E616C202220782022293E3C696628657175616C28486F6
310
C653A7461707065642C223022292C486F6C653A6469612C486F6C653A706974636864657363293E3C696628657175616C28486F6C653A7461707065642C223122292C22207820222C2222293E3C696628657175616C28486F6C653A7461707065642C223122292C486F6C653A74617064657074682C2222293E203C6966286
310
57175616C28486F6C653A7465726D696E6174696F6E2C223022292C22202F20222C2222293E3C696628657175616C28486F6C653A7465726D696E6174696F6E2C223022292C486F6C653A64657074682C2222293E4064051E4050A54656D706C61746520314050C3D3C535444503A444553433E40640515A88
 94
        0
1001
ACAD
1000
AcRTDxfName
1000
ACMNOTESTANDARDISO
1000
AcRTDxfName
1000
ACMNOTESTANDARDISO
  0
ACAD_PROXY_OBJECT
  5
152E1
330
152C7
100
AcDbProxyObject
 90
      499
 91
      539
 95
   983063
 70
     0
 93
       20
310
571010
340
152C8
 94
        0
1001
ACAD
1000
AcRTDxfName
1000
ACAMGLAYSTD
1000
AcRTDxfName
1000
ACAMGLAYSTD
  0
ACAD_PROXY_OBJECT
  5
152E2
330
152C7
100
AcDbProxyObject
 90
      499
 91
      540
 95
   983063
 70
     0
 93
      250
310
571020000000000000A1000000000000002440408F0F9023C3E409A0DCFFFF84
340
152E3
340
0
340
0
340
152E4
340
152E5
340
152E6
340
152E7
340
152E8
340
152ED
340
0
 94
        0
1001
ACAD
1000
AcRTDxfName
1000
ACAMGDIMSTD
1000
AcRTDxfName
1000
ACAMGDIMSTD
  0
ACAD_PROXY_OBJECT
  5
152EE
330
152C7
100
AcDbProxyObject
 90
      499
 91
      541
 95
   983063
 70
     0
 93
    13707
310
5711A003FFFFFFFD03030003000000000000031000903030003000000000000031000805134C697374206F6620436F6F7264696E61746573015091D15395149050D3CB1153954B0C0B131A5CDD081BD98810DBDBDC991A5B985D195CCB11D15395149055160B095CCB0A11D1539354D1C819D95B991A5B5E880CCC0A78000C
310
00000000000000000000000000000001000000000000031010240000000000000C4040A0142921BDB19481518589B194053947454E545241434F2C454E552C302C486F6C65205461626C652C47454E54524154582C25732C2847454E4D53472067656E64696D7A20333129E000300000000000000000000000000000000400
310
00000000000C40409000000000000031010290D44111409034110541D0C4350F4050E44D03449074510F00014193DC9A59DA5B8053447454E545241434F2C454E552C302C4F726967696E2C47454E54524154582C25732C2847454E4D53472067656E64696D7A203129000101050022140002822437B63280A648E8A9CA8A4
310
82869E588A9CAA58605890DED8CA588E8A9CA8A482A8B0584AE658508E8A9C9AA68E40CECADCC8D2DAF4406452029F9E9E27B934B3B4B71F1E24A31427A91424A9A12620A7259427B934B3B4B7149624A9A12620A7259424B73232BC149496111116111711149F1E24B73232BC1F00808200111A000140560052F47454E545
310
241434F2C454E552C302C582C47454E54524154582C25732C2847454E4D53472067656E64696D7A20332900010100002054000280AC80A5E8E8A9CA8A482869E588A9CAA586058B2588E8A9CA8A482A8B0584AE658508E8A9C9AA68E40CECADCC8D2DAF4406852000202000040E800050172014BD1D15395149050D3CB1153
310
954B0C0B1C8B11D15395149055160B095CCB0A11D1539354D1C819D95B991A5B5E880D8A400040400008250000A0EB8AA5660686868029AA3A2A72A2920A1A79622A72A9618162E2A95981A1A1A1623A2A72A2920AA2C1612B9961423A2A726A9A39033B2B73234B6BD101B948000808180105A000140C94958C053147454E
310
545241434F2C454E552C302C2525632C47454E54524154582C25732C2847454E4D53472067656E64696D7A203829000101010020F4000285A232B9B1B934B83A34B7B700A748E8A9CA8A482869E588A9CAA58605888CAE6C6E4D2E0E8D2DEDC588E8A9CA8A482A8B0584AE658508E8A9C9AA68E40CECADCC8D2DAF44064605
310
2000200080043280005085374616E64617264014DD1D15395149050D3CB1153954B0C0B14DD185B99185C990B11D15395149055160B095CCB0A11D1539354D1C819D95B991A5B5E880C8C4A4000400100086D0000A0C9EE4D2CED2DC029A23A2A72A2920A1A79622A72A96181627B934B3B4B71623A2A72A2920AA2C1612B9
310
961423A2A726A9A39033B2B73234B6BD10189480A026202020A0043E80005044974656D014CD1D15395149050D3CB1153954B0C0B125D195B4B11D15395149055160B095CCB0A11D1539354D1C819D95B991A5B5E880C4D0A4000404140080D0000A0A92DCC8CAF0029A23A2A72A2920A1A79622A72A96181624B73232BC16
310
23A2A72A2920AA2C1612B9961423A2A726A9A39033B2B73234B6BD10189A94800080828010EA000142921BDB1948125B99195E0053947454E545241434F2C454E552C302C486F6C6520496E6465782C47454E54524154582C25732C2847454E4D53472067656E64696D7A20313729000101050022740002822437B63280A66
310
8E8A9CA8A482869E588A9CAA58605890DED8CA588E8A9CA8A482A8B0584AE658508E8A9C9AA68E40CECADCC8D2DAF440626C52000202080044A8000503517479014C91D15395149050D3CB1153954B0C0B145D1E4B11D15395149055160B095CCB0A11D1539354D1C819D95B991A5B5E880C4E4A400040418008A521E00000
310
0000000001CA040C00000000000034408080000000000006881010000000000000D102040000000000001A204080000000000003440818000000000000728103000000000000125020600000000004028A040000000000000034408000000000000004881000000000000000D102000000000000001A204000000000000003
310
440818000000000000508143C0000000000000039408180000000000006881030000000000000D102060000000000001A2040C00000000000034408180000000000006881030000000000000E5020600000000000024A040C000000000080514080000000000000068810000000000000009102000000000000001A2040000
310
000000000034408180000000000006881030000000000000A10283A2000000087800000204000000818000002080000008280000020E00000080A240000000
340
0
340
0
340
0
340
0
 94
        0
1001
ACAD
1000
AcRTDxfName
1000
ACAMGHOLECHARTSTDISO
1000
AcRTDxfName
1000
ACAMGHOLECHARTSTDISO
  0
ACAD_PROXY_OBJECT
  5
152EF
330
152C7
100
AcDbProxyObject
 90
      499
 91
      542
 95
   983063
 70
     0
 93
     7162
310
5719740D254D3D0649534F5F4133429254D3D7D5125513115051349534F5F42525F5265766973696F6E6C69737446111413478342028323937783834316D6D2920421254D3D7D04D1E0D11141327835202835393478323130326D6D29421254D3D7D04C9E0D51141337837202834323078323038306D6D29421254D3D7D04C
310
DE0DD1141347839202832393778313839326D6D29421254D3D7D04D1E0E50E41312028353934783834316D6D29419254D3D7D04C51141327834202835393478313638326D6D29421254D3D7D04C9E0D11141347838202832393778313638326D6D29421254D3D7D04D1E0E10E41332028323937783432306D6D29419254D3D
310
7D04CD104130202838343078313138396D6D2920419254D3D7D04C11141347835202832393778313035316D6D29421254D3D7D04D1E0D51141347836202832393778313236316D6D29421254D3D7D04D1E0D91141347837202832393778313437316D6D29421254D3D7D04D1E0DD1141327833202835393478313236316D6D
310
29421254D3D7D04C9E0CD1141337834202834323078313138396D6D29421254D3D7D04CDE0D110413478332028323937783633306D6D29421254D3D7D04D1E0CD1141337835202834323078313438366D6D29421254D3D7D04CDE0D51141337836202834323078313738336D6D29421254D3D7D04CDE0D9104133783320283
310
43230783839316D6D29421254D3D7D04CDE0CD0E41322028343230783539346D6D29419254D3D7D04C9124130783220283131383978313638326D6D29421254D3D7D04C1E0C90E41342028323937783231306D6D29419254D3D7D04D1124130783320283131383978323532336D6D29421254D3D7D04C1E0CD114131783420
310
2838343178323337386D6D29421254D3D7D04C5E0D11141317833202838343178313738336D6D29421254D3D7D04C5E0CD02445254D3C8151A5D1B1948109B1BD8DAC81050A49534F5F5449544C4541445254D3C8151A5D1B1948109B1BD8DAC81090A49534F5F5449544C4542411105265766973696F6E6C6973745F424C5
310
F44D254D3D7D09317D4995D9A5CDA5BDB9B1A5CDD1105265766973696F6E6C6973745F544C5F44D254D3D7D51317D4995D9A5CDA5BDB9B1A5CDD1105265766973696F6E6C6973745F42525F44D254D3D7D09497D4995D9A5CDA5BDB9B1A5CDD1105265766973696F6E6C6973745F54525F44D254D3D7D51497D4995D9A5CDA
310
5BDB9B1A5CDD00
 94
        0
1001
ACAD
1000
AcRTDxfName
1000
ACAMGTITLESTD
1000
AcRTDxfName
1000
ACAMGTITLESTD
  0
ENDSEC
  0
EOF
